Song name
# A B C D E F G H I J K L M N O P Q R S T U V W X Y Z

Defiance - Anti-social tab

Song : Anti-Social
Band : Defiance
Album : No Future,No Hope

Tabbed by LastCaress88


Bass Intro:
G---------------------------------------------------------------l
D---------------------------------------------------------------l
A---------------5555555555555-22222222222222-33333333333333-----l
E-33333333333333------------------------------------------------l

Guitar Intro/Verse:
e------------------------------------------------l
B------------------------------------------------l
G----------77777--44444--55555-------------------l
D---55555--77777--44444--55555-------------------l
A---55555--55555--22222--33333-------------------l
E---33333----------------------------------------l

Chorus:
e-------------------------------------------------l
B-------------------------------------------------l
G------------------99999-9-7-5-55555-77777--------l
D---5--------------99999-9-7-5-55555-77777--------l
A---5-(pick slide)-77777-7-5-3-33333-55555--------l
E---3---------------------------------------------l

Bridge:
e--------------------------------------------------l
B--------------------------------------------------l
G--------------------------------------------------l
D---5--3--2----------------------------------------l
A---5--3--2----------------------------------------l
E---3--1--0----------------------------------------l
Tap to rate this tab
 
# A B C D E F G H I J K L M N O P Q R S T U V W X Y Z