Guitaretab - guitar tabs
Song name
# A B C D E F G H I J K L M N O P Q R S T U V W X Y Z

Deficient - So Long Ago tab

                             |The Deficient|
                              |So Long Ago|


------------------------------|
------------------------------|
------------------------------| repeat 3x's
------------------77777777----|
99999999-55555555-55555555----|
77777777-33333333-------------|
[ Tab from: http://www.guitaretab.com/d/deficient/124596.html ]
Bridge:
------------------------------|
------------------------------|
------------------------------| repeat once.
----7-------------------------|
9-7-5-7-99999999--------------|
7-5---5-77777777--------------|

------------------------------------------------------|
------------------------------------------------------|
------------------------------------------------------|
-------------------------------9-7-9-7----------------| repeat 2xs
9999-7-9-7-5555-7-5-7-5-7-9999-7-5-7-5-5555-7-5-7-9999|
7777-5-7-5-3333-5-3-5-3-5-7777---------3333-5-3-5-7777|

I know for a fact that this is the right way this tab goes.
If you have any questions about any tabs contact me at
Robdog2030@aol.com
Related for So Long Ago tab
Advertisement will be closed in 10 seconds