Song name
# A B C D E F G H I J K L M N O P Q R S T U V W X Y Z

Deficient - Hated And Feared tab

                          ---------------
                          |THE DEFICIENT|
                          ---------------

INTRO
----------------------------------------|----|
----------------------------------------|----|
----------------------------------------|-0--|
---332-2-----332-2-----332-2-----332-2--|-2--|
002---3-3-002---3-3-002---3-3-002---3-3-|-2--|
----------------------------------------|----|

VERSE
----------------------------------------|
----------------------------------------|
--------------101010101010-999999-------|
777777-999999-101010101010-999999-------|
777777-999999--8-8-8-8-8-8-777777-------|
555555-777777---------------------------|

BRIDGE
---------------------------|
---------------------------|
-------5----444444-5-------|
777777-5-55-444444-5-55----|
777777-3-55-222222-3-55----|
555555---33----------33----|

CHORUS
-----------------------------|
-----------------------------|
-----4444-10101010-77-55-----|
5555-4444-10101010-77-55-----|
5555-2222--8-8-8-8-55-33-----|
3333-------------------------|

http://go.to/deficient
Tap to rate this tab
 
# A B C D E F G H I J K L M N O P Q R S T U V W X Y Z