Song name
# A B C D E F G H I J K L M N O P Q R S T U V W X Y Z

Deficient - Bitch Ass tab

                             |BITCH ASS|
                            THE DEFICENT



12------12------10------10------12------12----------------|Reapeat about
--12--12--12--12--10--10--10--10--12--12--12--12----------|5 times getting
----12------12------10------10------12------12------------|faster each time
----------------------------------------------------------|
----------------------------------------------------------|
----------------------------------------------------------|

yeah another song that you can mess with a little just listen to the song
and you should have no problem finding the beat
15141312-10-12---------------------------------------------|
15141312-10-12---------------------------------------------|
15141312-10-12---------------------------------------------|
-----------------------------------------------------------|
-----------------------------------------------------------|
-----------------------------------------------------------|
Tap to rate this tab
# A B C D E F G H I J K L M N O P Q R S T U V W X Y Z