Song name
# A B C D E F G H I J K L M N O P Q R S T U V W X Y Z

Deficient - Avail tab

INTRO:
-----------------------------------------------|Reapeat about 4x's
-----------------------------------------------|And then switch to
-------------8---8-----------------------------|heavy part
-10-11-10-8-8---8-8--8--10---------------------|
8----------8--10---10-11-----------------------|
-----------------------------------------------|
This is personally my favorite song other than this time!!!
-----------------|
-----------------|Now just repeat this a couple of times and you should have
-----------------|it. now just mix that up a little and listen to the song and
----666-333-55---|youll have the song
333-444-111-33-56|
111------------34|

Ok well if you have any other REQUEST e-mail me AT ROBDOG2030@aol.com
Tap to rate this tab
 
# A B C D E F G H I J K L M N O P Q R S T U V W X Y Z