Song name
# A B C D E F G H I J K L M N O P Q R S T U V W X Y Z

Deficient - Innsuficient Balance tab

                            |The Deficient|
                        |Innsuficient Balance|

--------------------------------------------------|
--------------------------------------------------|
--------------------------------------------------|
4-4-4444-5------------4444-5----------------------|
2-2-2222-3-5-4444-2222-3-5-4444-------------------|
----------------3-2222-------------3-2222---------|


--------------------------------------------------|
--------------------------------------------------|
--------------------------------------------------|REPEAT 2x's
11-44-55---54-11-44-55----11-44-55----------------|
00-22-33-0532-00-22-33-05-00-22-33-0555-----------|
---------03------------03----------0333-----------|

Ok well this is pretty much it ok bye bye
Tap to rate this tab
# A B C D E F G H I J K L M N O P Q R S T U V W X Y Z