Song name
# A B C D E F G H I J K L M N O P Q R S T U V W X Y Z

Defleshed - Domination Of The Sub-queen tab

Band:  Defleshed
Album: Fast forward
Song:  Domination of the sub-queen



-  - palm mute           /  - slide up to
\  - slide down to       ~  - vibrato
h  - hammer on           b  - Bend
p  - pull off            Suffixes for bend
t  - tap                 f  - full bend    h - half bend
ph - pinched harmonic    q  - quarter bend t - tap bend
*  - see comment         ^  - Hold bend    r release bend
x  - Stuccatto           ~  - vibrato bend
,  - slight palm mute    () - ghost note, sustained note
"  - tremolo note        <> - Trill  

Tuning 3 half steps down 

|-----------------------------------------------------------------|
|-----------------------------------------------------------------|
|-----------------------------------------------------------------|
|---------------------------------3/4-3/4-3/4-3/4-----------------|
|-2-------------------------------3/4-3/4-3/4-3/4-4-3-4-3-4-3-4-3-|
|-0---000-000-000-000-000-000-000---------------------------------|
      --- --- --- --- --- --- ---                 - - - - - - - - 
|--------------------------------------------------------------------|
|--------------------------------------------------------------------|
|--------------------------------------------------------------------|
|----------------------------------------------------6---------------|
|-4\3-4--------7\6-7-------10\9-10---3-4-3-4-3-4-3-4---4-3-4-3-4-3-4-|
|-2\1-2---0000-5\4-5---0000-8\7-8------------------------------------|
          ----         ----          - - - - - - - -   - - - - - - -
|-----------------------------------|
|-----------------------------------|
|-----------------------------------|
|-----------------------------------|
|-2h3p2-----2-------4-------5-------|
|-------5-3-0---0-2-----0-3-----3p0-|
        - -     - -     - -

|---------------------------------------------------------------------
|---------------------------------------------------------------------
|---------------------------------------------------------------------
|-------------------------------3-------------------------------------
|-7/8---7/8---7/8---------------3---7/8---7/8---7/8-------4-----------
|-5/6---5/6---5/6---3-333-3-333-----5/6---5/6---5/6---5-7---7-4-6/7---
                    - --- - ---                       

 -------------------------------------------------------------------|
 -------------------------------------------------------------------|
 -------------------------------------------------------------------|
 -------------------------------------------------------------------|
 -7/8---7/8---7/8-----------5\3---7/8---7/8---7/8-------6-------8---|
 -5/6---5/6---5/6---3-333-3-3\1---5/6---5/6---5/6---4-4-4---6-6-6---|
                    - --- -                         - -     - -





|-------------break---------------|
|---------------------------------|
|---------------------------------|
|-5-7-8-----------5-7-8-----------|
|---------8-7-5-----------8-7-5---|
|-------0-------0-------0-------0-|
        -       -       -       -
|--------------------------------------------------------------|
|--------------------------------------------------------------|
|--------------------------------------------------------------|
|-7---------------8-----7-----6---7---------------8-----7------|
|---6-------8-----6-----5-----4-----6-------8-----6-----5------|
|-----5---0-6-0-0---0-0---0-0---------5---0-6-0-0---0-0--------|
          -   - -   - -   - -             -   - -   - -
|---------------------------------------------------------------------|
|---------------------------------------------------------------------|
|---------------------------------------------------------------------|
|-----------------------------------------------------7h8-------------|
|-7/8---7/8---7/8---4---3-----------7/8---7/8---7/8-----------7h8p7p5-|
|-5/6---5/6---5/6---2---1---2-222-2-5/6---5/6---5/6-------0-0---------|
                            - --- -                       - -
|-----ending------|
|-----------------|
|-----------------|
|-----------------|
|-7/8---7/8---7/8-|
|-5/6---5/6---5/6-|
Tap to rate this tab
# A B C D E F G H I J K L M N O P Q R S T U V W X Y Z