Song name
# A B C D E F G H I J K L M N O P Q R S T U V W X Y Z

Deftones - Ice Skates tab

Tuned down one whole step- low to high- C G C F A D
verse riff
d)--------------------------------------------|
a)--------------------------------------------|
f)--------------------------------------------|
c)--------------------------------------------|
g)-------2----------------------2-------------|
c)-0-2-2---3--------------0-2-2---3-----------|
chorus riff
d)-------------------------------------------------------------------|
a)-------------------------------------------------------------------|
f)-------------------------------------------------------------------|
c)-0-2-2-2-2-2-2-2-2/5-5-5-5-5-5-5-52-2-2-2-2-2-2-2/5-5-5-5-5-5-5-5--|
g)-0-2-2-2-2-2-2-2-2/5-5-5-5-5-5-5-52-2-2-2-2-2-2-2/5-5-5-5-5-5-5-5--|
c)-0-2-2-2-2-2-2-2-2/5-5-5-5-5-5-5-52-2-2-2-2-2-2-2/5-5-5-5-5-5-5-5--|
other riff
d)-----------------------------------------------------------------|
a)-----------------------------------------------------------------|
f)-----------------------------------------------------------------|
c)-3-3-3-3-3-3-3-3-3-3-3-3-3-3-3-3-3-3-3-3-3-3-3-3-3-3-3-3-3-3-3-3-|
g)-3-3-3-3-3-3-3-3-3-3-3-3-3-3-3-3-3-3-3-3-3-3-3-3-3-3-3-3-3-3-3-3-|
c)-3-3-3-3-3-3-3-3-3-3-3-3-3-3-3-3-3-3-3-3-3-3-3-3-3-3-3-3-3-3-3-3-|
really easy song
Tap to rate this tab
 
# A B C D E F G H I J K L M N O P Q R S T U V W X Y Z