Song name
# A B C D E F G H I J K L M N O P Q R S T U V W X Y Z

Deftones - Through This tab

Tabbed by: Daniel Kelly...dan_thy_man@hotmail.com
Please e-mail me if you know anything better!!

Drop-D Tuning!!!!!

Intro
e|----------------------------|
B|----------------------------|
G|-7----7----7h8-3---3----3/5-|
D|----------------------------|
A|----------------------------|
D|--0-0--0-0------1-1--1-1----|

1st Verse
e|------------------------------------|
B|------------------------------------|
G|-7-------7--7h8-3-------3-------3/5-| Until Next part not sure 
D|-0--0-0--0--0---1--1-1--1--1-1--1---| how many times
A|-0--0-0--0--0---1--1-1--1--1-1--1---|
D|-0--0-0--0--0---1--1-1--1--1-1--1---|

Pre-Chorus
e|----------------------------------------------------------------|
B|----------------------------------------------------------------|
G|-7--7---7-7-7-7/10--10--10-10-10/7-7--7---7-7-7-7/5--5---5-5-5--|
D|-5--5---5-5-5-5/8---8---8--8--8-/5-5--5---5-5-5-5/3--3---3-3-3--|
A|-5--5---5-5-5-5/8---8---8--8--8-/5-5--5---5-5-5-5/3--3---3-3-3--|
D|-5--5---5-5-5-5/8---8---8--8--8-/5-5--5---5-5-5-5/3--3---3-3-3--|

Chorus
e|------------------------------------|
B|------------------------------------| 3 Times
G|-7-------7--7h8-3-------3-------3/5-|
D|-0--0-0--0--0---1--1-1--1--1-1--1---|
A|-0--0-0--0--0---1--1-1--1--1-1--1---|
D|-0--0-0--0--0---1--1-1--1--1-1--1---|

Bridge
e|----------------------------------------------------------------|
B|----------------------------------------------------------------|
G|-7--7---7-7-7-7/10--10--10-10-10/7-7--7---7-7-7-7/5--5---5-5-5--|
D|-5--5---5-5-5-5/8---8---8--8--8-/5-5--5---5-5-5-5/3--3---3-3-3--|
A|-5--5---5-5-5-5/8---8---8--8--8-/5-5--5---5-5-5-5/3--3---3-3-3--|
D|-5--5---5-5-5-5/8---8---8--8--8-/5-5--5---5-5-5-5/3--3---3-3-3--|

2nd Verse
e|------------------------------------|
B|------------------------------------|
G|-7-------7--7h8-3-------3-------3/5-| 
D|-0--0-0--0--0---1--1-1--1--1-1--1---|
A|-0--0-0--0--0---1--1-1--1--1-1--1---|
D|-0--0-0--0--0---1--1-1--1--1-1--1---|

Pre-Chorus
e|----------------------------------------------------------------|
B|----------------------------------------------------------------|
G|-7--7---7-7-7-7/10--10--10-10-10/7-7--7---7-7-7-7/5--5---5-5-5--|
D|-5--5---5-5-5-5/8---8---8--8--8-/5-5--5---5-5-5-5/3--3---3-3-3--|
A|-5--5---5-5-5-5/8---8---8--8--8-/5-5--5---5-5-5-5/3--3---3-3-3--|
D|-5--5---5-5-5-5/8---8---8--8--8-/5-5--5---5-5-5-5/3--3---3-3-3--|

Chorus
e|------------------------------------|
B|------------------------------------| 3 Times
G|-7-------7--7h8-3-------3-------3/5-|
D|-0--0-0--0--0---1--1-1--1--1-1--1---|
A|-0--0-0--0--0---1--1-1--1--1-1--1---|
D|-0--0-0--0--0---1--1-1--1--1-1--1---|

There is a solo guitar part here somewhere but i couldn't get it soo e-mail me if you know it!!
Tap to rate this tab
# A B C D E F G H I J K L M N O P Q R S T U V W X Y Z