Guitaretab - guitar tabs
Song name
# A B C D E F G H I J K L M N O P Q R S T U V W X Y Z

Deftones - Please Please Please tab

#-----------------------------PLEASE NOTE-------------------------------------#
#This OLGA file is the author's own work and represents their interpretation  #
#of the song. You may only use this file for private study, scholarship, or   #
#research. Remember to view this file in Courier, or some other monospaced    #
#font. See for more information.                     #

Date: Thu, 13 Jul 2000 23:36:25 -0400
From: Tim Millard 
Subject: d/deftones/

"Please Please Please" - Deftones (originally by the Smiths)
Taken from the "7 Words" cassette single...and Napster :)
Tabbed by Tim Millard (
Standard tuning (EADGBE)

One of the Deftones' better songs, Chino's vocals in this are amazing 
IMHO.  Listen to song for proper timings, as these are probably off.


~ - Let ring


E ------------------------------------
B ------------------------------------
G -7-7-7-7-----------7-7-7-7----------
D -7-7-7-7--7-7-7-7--7-7-7-7--7-7-7-7-
A -5-5-5-5--7-7-7-7--5-5-5-5--7-7-7-7-
E ----------5-5-5-5-----------5-5-5-5-


E ---------------------------------
B ---------------------------------
G ---------------------------------
D -4-4-4-4--5-5-5-5--7-7-7-7-7-7-7-
A -4-4-4-4--5-5-5-5--7-7-7-7-7-7-7-
E -2-2-2-2--3-3-3-3--5-5-5-5-5-5-5-

While the A chord is being played, a second guitar throws in this little riff.

E ---------------
B ---------------
G ---------------
D -2~~-----------
A ------5~~--4~~-
E ---------------


E ----------------------------------------------------------------
B ----------------------------------------------------------------
G ---------------------------7--7---------------------------------
D -5-5-5-5-5-5--7-7-7-7-7-7--7--7--5-5-5-5-5-5-5-5-5--7-7-7-7-7-7-
A -5-5-5-5-5-5--7-7-7-7-7-7--5--4--5-5-5-5-5-5-5-5-5--7-7-7-7-7-7-
E -3-3-3-3-3-3--5-5-5-5-5-5--------3-3-3-3-3-3-3-3-3--5-5-5-5-5-5-

E -------------------------------------
B -------------------------------------
G -7-6-7-6-7-9-7-6---7-6-7-6-7-9-7-6---
D -----------------7-----------------7-
A -------------------------------------
E -------------------------------------

Finish out the first chorus with this riff before going back to the verse...

E ------------------------
B ----------------10-7~~~-
G -11-9-11-9-7-6----------
D ------------------------
A ------------------------
E ------------------------

At the end of the second chorus, do not play the chorus, riff, rather play 

E ----------------------
B ----------------------
G ----------------------
D -5-5-5-5-5--7-7-7-7-7-
A -5-5-5-5-5--7-7-7-7-7-
E -3-3-3-3-3--5-5-5-5-5-

A second guitar plays this small riff over the A chord...

E ------------
B ------------
G ------------
D ------------
A -5~~~--7~~~-
E ------------

Solo / Outro:

During the solo, the notes are held and played VERY fast.  I wasn't able to 
get the exact timing from the song, so if you have the song handy, play 
along with it.  If you don't have the song or can't play that fast, play 
the single notes.

The rhythm guitar plays the chorus chords until the point indicated...

E -15-14-12--14-15----17--19--21-22-17-14*--19--14--21-22-15-14-12~~~-
B -----------------15-------------------------------------------------
G --------------------------------------------------------------------
D --------------------------------------------------------------------
A --------------------------------------------------------------------
E --------------------------------------------------------------------

* These chords come in over the solo at this point for the outro...

E -------------------------------------------------
B -------------------------------------------------
G ------------------4-----6-7----------------------
D -4-2-4-2-4-2-4-2--4--4--6-7--5-5-5-5-5-5-5--7~~~-
A -4-2-4-2-4-2-4-2--2--4--4-5--5-5-5-5-5-5-5--7~~~-
E -2-0-2-0-2-0-2-0--2--2-------3-3-3-3-3-3-3--5~~~-

[ Tab from: ]
Related for Please Please Please tab