Song name
# A B C D E F G H I J K L M N O P Q R S T U V W X Y Z

Deftones - Lovers tab

-------------------------------------------------------------------------------
Lovers - Deftones
-------------------------------------------------------------------------------
Tabbed by: cyrus
Email:

This song is off of the hexagram single

Tuning: drop c tuning (white pony)
	7 string drop Ab (Ab,Eb,Ab,Db,Gb,Bb,Eb) (deftones)
intro
(Let ring)
D|---------------------|-|--------------------------------------|
A|---------------------|o|--------------------------------------|
F|---------------------|-|--------------------------------------|
C|---------------------|-|---5----6--5--6--5---5----6--5--6--5--|
G|---------------------|o|---5----6--5--6--5---5----6--5--6--5--|
C|----4----------------|-|---5----6--5--6--5---5----6--5--6--5--|

D|-------------------------------------------|-|
A|-------------------------------------------|o|
F|---------------------------8-8-8---7-7-7---|-|
C|---5----6--5--6--5----1--------------------|-|  x2
G|---5----6--5--6--5----1----6-6-6---5-5-5---|o|
C|---5----6--5--6--5----1--------------------|-|

Verse
D|--------------------------------------|
A|--------------------------------------|
F|--------------------------------------|
C|---5----6--5--6--5---5----6--5--6--5--|
G|---5----6--5--6--5---5----6--5--6--5--|
C|---5----6--5--6--5---5----6--5--6--5--|

D|-----------------------------------------|
A|-----------------------------------------|
F|---------------------------8-8-8---7-7-7-|
C|---5----6--5--6--5----1------------------|
G|---5----6--5--6--5----1----6-6-6---5-5-5-|
C|---5----6--5--6--5----1------------------|

Chorus
D|--------------------------------------------|
A|--------------------------------------------|
F|--------------------------------------------|
C|---3---4--3--3--3---3---3--3---1--1--1------|
G|---3---4--3--3--3---3---3--3---1--1--1------|
C|---3---4--3--3--3---3---3--3---1--1--1------|
Bridge

    Strum fast (eighth notes)
Guitar 1
D|----------------------------------|
A|----------------------------------|
F|-3-3-3-3-3-3-3-3--2-2-2-2-2-2-2-2-|
C|-x-x-x-x-x-x-x-x--x-x-x-x-x-x-x-x-| x 8
G|-1-1-1-1-1-1-1-1--0-0-0-0-0-0-0-0-|
C|----------------------------------|

Guitar 2 (start on 3rd repeat of guitar 1 bridge riff)
D|-15---------------14--------------|
A|----------------------------------|
F|----------------------------------|
C|----------------------------------|
G|----------------------------------|
C|----------------------------------|

D|----------------------------------|
A|-13-------------------------------|
F|----------------------------------|
C|----------------------------------|
G|----------------------------------|
C|----------------------------------|

D|----------------------------------|
A|-11---------13--------------------|
F|----------------------------------|
C|----------------------------------|
G|----------------------------------|
C|----------------------------------|

D|----------------------------------|
A|-11---------13--------------------|
F|----------------------------------|
C|----------------------------------|
G|----------------------------------|
C|----------------------------------|

D|-------------15-------------------|
A|-11-------------------------------|
F|----------------------------------|
C|----------------------------------|
G|----------------------------------|
C|----------------------------------|

D|----------------------------------|
A|-11----------13-------------------|
F|----------------------------------|
C|----------------------------------|
G|----------------------------------|
C|----------------------------------|


Song structure at the bottom



For the 7 string guitar
(Ab,Eb,Ab,Db,Gb,Bb,Eb)
intro
     (Let ring)
Eb|---------------------|-|------------------------------------------|
Bb|---------------------|o|------------------------------------------|
Gb|---------------------|-|------------------------------------------|
Db|---------------------|-|------------------------------------------|
Ab|---------------------|-|---9----10--9--10--9---9----10--9--10--9--|
Eb|---------------------|o|---9----10--9--10--9---9----10--9--10--9--|
Ab|----8----------------|-|---9----10--9--10--9---9----10--9--10--9--|


Eb|-------------------------------------------------|-|
Bb|-------------------------------------------------|o|
Gb|-------------------------------------------------|-|
db|---------------------------12-12-12---11-11-11---|-|
Ab|---9----10--9--10--9----5------------------------|-|  x2
Eb|---9----10--9--10--9----5--10-10-10---9--9--9----|o|
Ab|---9----10--9--10--9----5------------------------|-|

Verse
Eb|------------------------------------------|
Bb|------------------------------------------|
Gb|------------------------------------------|
Db|------------------------------------------|
Ab|---9----10--9--10--9---9----10--9--10--9--|
Eb|---9----10--9--10--9---9----10--9--10--9--|
Ab|---9----10--9--10--9---9----10--9--10--9--|


Eb|-----------------------------------------------|
Bb|-----------------------------------------------|
Gb|-----------------------------------------------|
Db|---------------------------12-12-12---11-11-11-|
Ab|---9----10--9--10--9----5----------------------|
Eb|---9----10--9--10--9----5--10-10-10---9--9--9--|
Ab|---9----10--9--10--9----5----------------------|

chorus
Eb|--------------------------------------------|
Bb|--------------------------------------------|
Gb|--------------------------------------------|
Db|--------------------------------------------|
Ab|---7---8--7--7--7---7---7--7---5--5--5------|
Eb|---7---8--7--7--7---7---7--7---5--5--5------|
Ab|---7---8--7--7--7---7---7--7---5--5--5------|
Bridge

    Strum fast (eighth notes)
Guitar 1
Eb|----------------------------------|
Bb|----------------------------------|
Gb|----------------------------------|
Db|-7-7-7-7-7-7-7-7--6-6-6-6-6-6-6-6-|
Ab|-x-x-x-x-x-x-x-x--x-x-x-x-x-x-x-x-| x 8
Eb|-5-5-5-5-5-5-5-5--4-4-4-4-4-4-4-4-|
Ab|----------------------------------|

Guitar 2 (start on 4rd repeat of guitar 1 bridge riff)
Eb|-10----------------9--------------|
Bb|----------------------------------|
Gb|----------------------------------|
Db|----------------------------------|
Ab|----------------------------------|
Eb|----------------------------------|
Ab|----------------------------------|

Eb|----------------------------------|
Bb|-9--------------------------------|
Gb|----------------------------------|
Db|----------------------------------|
Ab|----------------------------------|
Eb|----------------------------------|
Ab|----------------------------------|

Eb|----------------------------------|
Bb|-7----------9---------------------|
Gb|----------------------------------|
Db|----------------------------------|
Ab|----------------------------------|
Eb|----------------------------------|
Ab|----------------------------------|

Eb|----------------------------------|
Bb|-7----------9---------------------|
Gb|----------------------------------|
Db|----------------------------------|
Ab|----------------------------------|
Eb|----------------------------------|
Ab|----------------------------------|

Eb|------------10--------------------|
Bb|-7--------------------------------|
Gb|----------------------------------|
Db|----------------------------------|
Ab|----------------------------------|
Eb|----------------------------------|
Ab|----------------------------------|

Eb|----------------------------------|
Bb|-7----------9---------------------|
Gb|----------------------------------|
Db|----------------------------------|
Ab|----------------------------------|
Eb|----------------------------------|
Ab|----------------------------------|



Song structure
Intro x1
Verse x4
Chorus x4
Verse x5
Chorus x6
Bridge x1
Chorus x6
Verse 



| /  slide up
| \  slide down
| h  hammer-on
| p  pull-off
| ~  vibrato
| +  harmonic
| x  Mute note
===============================================================================
Tap to rate this tab
# A B C D E F G H I J K L M N O P Q R S T U V W X Y Z