Song name
# A B C D E F G H I J K L M N O P Q R S T U V W X Y Z

Deftones - Keep On Loving You tab

This is deftones cover of reo speedwagon 'keep on loving you'.
Intro
E|----------------------------------|
B|----------------------------------|
G|----------------------------------|
D|-3--------3-3--------3--------3-3-|
A|-3--------3-3--------3--------3-3-|
E|-1--------1-1--------1--------1-1-| Scratch down the E
     8 Sec      8 Sec
Chorus
E|-------------------------------------------------------|
B|-------------------------------------------------------|
G|---------------------------------------------------7-7-|
D|-3-3-5-5-3-3-5-5-5-5-7-7-10-9-7-7-10-9-5-5-3-3-2-2-7-7-|
A|-3-3-5-5-3-3-5-5-5-5-7-7-10-9-7-7-10-9-5-5-3-3-2-2-5-5-|
E|-1-1-3-3-1-1-3-3-3-3-5-5-8--7-5-5-8--7-3-3-1-1-0-0-----|

E|-------------------------------------------------------------------------|
B|-------------------------------------------------------------------------|
G|-------------------------------------------------------------------------|
D|-10-10-3-3-5-5-10-10-3-3-5-5-7-7-7-7-10-10-9-9-7-7-10-10-9-9-5-5-3-3-2-2-|
A|-10-10-3-3-5-5-10-10-3-3-5-5-7-7-7-7-10-10-9-9-7-7-10-10-9-9-5-5-3-3-2-2-|
E|-8--8--1-1-3-3-8--8--1-1-3-3-5-5-5-5-8--8--7-7-5-5-8--8--7-7-3-3-1-1-0-0-|
Tap to rate this tab
# A B C D E F G H I J K L M N O P Q R S T U V W X Y Z