Song name
# A B C D E F G H I J K L M N O P Q R S T U V W X Y Z

Deftones - Beware tab

Tabbed by Devin Davis
Awesome song on Deftones new album "Saturday Night Wrist"
Tuned A Half step down Drop D
This is how i play it on a 6 string guitar.
The only really different things i did on this tab from all the other tabs are the
because they are what the rhythm guitar plays, and the ending solo.  I didnt see anyone else
tabbed that so i gave it a shot.

Verse
|-0---0---0---0----|
|---2---2---4---2--|
|------------------|
|------------------|
|------------------|
|------------------|


Prechorus
|------------------|
|-3---3---3---3----|
|---6---6---6---6--|
|------------------|
|------------------|
|------------------|


Chorus
|---------------|
|---------------|
|-6-------------|
|-6------2------|
|-4-x16--2-x16--|
|-6------2------|


Bridge
|------------------------------------------|
|------------------------------------------|
|------------------------------------------|
|------------------------------------------|
|------------------------------------------|
|-4-4-4-4-4-4-4-4-10-10-10-10-10-10-10-10--|

|----------------------------------|
|----------------------------------|
|----------------------------------|
|----------------------------------|
|-5-4-5-4-5-4-5-4-5-4-5-4-5-4-5-4--|
|----------------------------------|


Ending (Rhythm)
|------------------------------------------------|
|------------------------------------------------|
|------------------12----------------------------|
|-11-11-12-11--11--12--12-11-12--11-11-12-11--7--|
|-11-11-12-11--11--10--12-11-12--11-11-12-11--7--|
|-11-11-12-11--11------12-11-12--11-11-12-11--7--|


Ending (Lead)
|-11--------11-11-11-11-------------------------------11-11-11-11----------------------|
|--9-(x32)---9--9--9--9--------------------------------9--9--9--9----------------------|
|------------------------9-9-9-9-------------9-9----9-------------9-9-9-9--------------|
|--------------------------------11-11-11-11-----11-----------------------11-11-11-11--|
|--------------------------------------------------------------------------------------|
|--------------------------------------------------------------------------------------|

If you have any questions, E-mail me at crayola_22_88@yahoo.com
Hope it helps!
Tap to rate this tab
# A B C D E F G H I J K L M N O P Q R S T U V W X Y Z