Song name
# A B C D E F G H I J K L M N O P Q R S T U V W X Y Z

Deftones - If Only Tonight We Could Sleep tab

I use standerd tuning

play clean in the beginning, and after second part everything with distortion:

---------------------   ----------------|
---------------------   ----------------|
---------------------   ----------------|
--3--3----3--3----3--   -----(3)-   <---| second part :o
-2--2-2-1---1-1-0----   -2-1-0----------|
-------------------0-   -------0--------|3x

----------------|
----------------|
----------------|
-5--5--5-5-7-0--|
-5--5--5-5-7-0--|
-5--5--5-5-7-0--|2x

some kind of solo:
------------------------------------5-7-7b-7--12-12--12--|
--8-8-8--8b--8-8-6-5-6-5-3-5--5-7-8------------12-12--12-|
---------------------------------------------------------|
---------------------------------------------------------|
---------------------------------------------------------|
---------------------------------------------------------|


then repeat all stuff, listen to the song for the playing-order of it
Tap to rate this tab
 
# A B C D E F G H I J K L M N O P Q R S T U V W X Y Z