Song name
# A B C D E F G H I J K L M N O P Q R S T U V W X Y Z

Deftones - Teenager tab

Tabbed by: Gord69961
dont know if its correct my first tab but sounds better then the other tabs for this song

Let all notes ring out
Riff 1                       
Eb|------------------------------------------------------------|
Bb|------------------------------------------------------------|
Gb|------------------------------------------------------------|
Db|------5---7-----------5---7-----------5---7-----------5---7-|
Ab|---3---------------3---------------3---------------3--------|
Db|-3---------------3---------------3---------------3----------|

Riff 2
Eb|------------------------------------------------------------|
Bb|------------------------------------------------------------|
Gb|------------------------------------------------------------|
Db|------5---7-----------5h7--5----------5---7-----------5h7--5|
Ab|---3---------------3---------------3---------------3--------|
Db|-3---------------3---------------3---------------3----------|

Repeat riff 2 till end of the song

Lyrics:
I climbed your arms
then you pulled away
a new cavity moved into
my heart today
the more I scream
the more it seems
that now I'm through
now I'm through
with the new you
I drove you home then
you moved away
new cavity moved into
my heart today
the more she sings
the more it seems that
now I'm through
now I'm through
with the new you
new you
Tap to rate this tab
# A B C D E F G H I J K L M N O P Q R S T U V W X Y Z