Song name
# A B C D E F G H I J K L M N O P Q R S T U V W X Y Z

Deftones - Rocket Skates tab

I tried learning this song from tabs on here but didn't think they sounded quite right 
thought I'd tab my own using various videos on youtube to help me and I think I got it.

If you think anything is wrong with it, or could be better, please e-mail me at 
cookiez_r_da_bst@hotmail.com

Tuning: Drop B

Intro

B-----------------------------|
G-----------------------------|
D-----------------------------|
A-----------------------------| X6
E-----------------------------|
B--6p0-0-6p0-0-6p0-0-3p0-2p0--|


B---------------------0-----------------------|
G---------------------0---------------------7-|
D--5-5--7--5-5--7--8--0---5-5--7--5-5--7--8-9-|
A--5-5--7--5-5--7--8------5-5--7--5-5--7--8-9-| X2
E--3-3--5--3-3--5--6------3-3--5--3-3--5--6---|
B---------------------------------------------|


B-------------------------------------------------------------------------|
G-------------------------------------------------------------------------|
D--5--5-5-5-5--5--5-5-5-5--5--5-5-5-5--5--5-5-5-5--5--5-5-5-5--5--5-5-5-5-|
A--5--5-5-5-5--5--5-5-5-5--5--5-5-5-5--5--5-5-5-5--5--5-5-5-5--5--5-5-5-5-|
E--3--3-3-3-3--3--3-3-3-3--3--3-3-3-3--3--3-3-3-3--3--3-3-3-3--3--3-3-3-3-|
B-------------------------------------------------------------------------|
   PM . . . .     . . . .     . . . .     . . . .     . . . .     . . . .

 -------------------------|
 -------------------------|
 -------------------------|
 -------------------------| X4
 -------------------------|
 -6p0-4p0-2p0-6p0-4p0-2p0-|


B-----------------------------|
G-----------------------------|
D-----------------------------|
A-----------------------------| X6
E-----------------------------|
B--6p0-0-6p0-0-6p0-0-3p0-2p0--|


B---------------------0-----------------------|
G---------------------0---------------------7-|
D--5-5--7--5-5--7--8--0---5-5--7--5-5--7--8-9-|
A--5-5--7--5-5--7--8------5-5--7--5-5--7--8-9-| X2
E--3-3--5--3-3--5--6------3-3--5--3-3--5--6---|
B---------------------------------------------|

B-------------------------------------------------------------------------|
G-------------------------------------------------------------------------|
D--5--5-5-5-5--5--5-5-5-5--5--5-5-5-5--5--5-5-5-5--5--5-5-5-5--5--5-5-5-5-|
A--5--5-5-5-5--5--5-5-5-5--5--5-5-5-5--5--5-5-5-5--5--5-5-5-5--5--5-5-5-5-|
E--3--3-3-3-3--3--3-3-3-3--3--3-3-3-3--3--3-3-3-3--3--3-3-3-3--3--3-3-3-3-|
B-------------------------------------------------------------------------|
   PM . . . .     . . . .     . . . .     . . . .     . . . .     . . . .

 -------------------------|
 -------------------------|
 -------------------------|
 -------------------------| X4
 -------------------------|
 -6p0-4p0-2p0-6p0-4p0-2p0-|

B-----------------------------|
G-----------------------------|
D-----------------------------|
A-----------------------------| X6
E-----------------------------|
B--6p0-0-6p0-0-6p0-0-3p0-2p0--|

B---------------------0-----------------------|
G---------------------0---------------------7-|
D--5-5--7--5-5--7--8--0---5-5--7--5-5--7--8-9-|
A--5-5--7--5-5--7--8------5-5--7--5-5--7--8-9-| X4
E--3-3--5--3-3--5--6------3-3--5--3-3--5--6---|
B---------------------------------------------|

B-------|
G-------|
D-------|
A--6----|
E--6----|
B--8----|


B-------------------------------------------------------------------------|
G-------------------------------------------------------------------------|
D--5--5-5-5-5--5--5-5-5-5--5--5-5-5-5--5--5-5-5-5--5--5-5-5-5--5--5-5-5-5-|
A--5--5-5-5-5--5--5-5-5-5--5--5-5-5-5--5--5-5-5-5--5--5-5-5-5--5--5-5-5-5-|
E--3--3-3-3-3--3--3-3-3-3--3--3-3-3-3--3--3-3-3-3--3--3-3-3-3--3--3-3-3-3-|
B-------------------------------------------------------------------------|
   PM . . . .     . . . .     . . . .     . . . .     . . . .     . . . .

 -------------------------|
 -------------------------|
 -------------------------|
 -------------------------| X4
 -------------------------|
 -6p0-4p0-2p0-6p0-4p0-2p0-|

B---------------------0-----------------------|
G---------------------0---------------------7-|
D--5-5--7--5-5--7--8--0---5-5--7--5-5--7--8-9-|
A--5-5--7--5-5--7--8------5-5--7--5-5--7--8-9-| X4
E--3-3--5--3-3--5--6------3-3--5--3-3--5--6---|
B---------------------------------------------|

  fin :)
Tap to rate this tab
# A B C D E F G H I J K L M N O P Q R S T U V W X Y Z