Guitaretab - guitar tabs
Song name
# A B C D E F G H I J K L M N O P Q R S T U V W X Y Z

Deftones - Lotion tab

TUNING: tune your guitar down half a step and then drop d (Db,Ab,Db,Gb,Bb,Eb)

INTRO/VERSE:

Eb|------------------------------------|
Bb|------------------------------------|
Gb|------------------------------------|
Db|--0-1-1-1-1--0-1-1-1-1--0-1-1--1-0--|
Ab|--0-1-1-1-1--0-1-1-1-1--0-1-1--1-0--|
Db|--0-1-1-1-1--0-1-1-1-1--0-1-1--1-0--|
        pm..............................

Eb|--------------------------------------|
Bb|--------------------------------------|
Gb|--------------------------------------|
Db|--0-1-1-1-1--0-1-1-1-1--0-1-1-1-1--0--|
Ab|--0-1-1-1-1--0-1-1-1-1--0-1-1-1-1--0--|
Db|--0-1-1-1-1--0-1-1-1-1--0-1-1-1-1--0--|

 CHORUS:

Eb|-----------------------------|
Bb|-----------------------------|
Gb|-----------------------------|
Db|--4--4--4--4--5--5--5--5--0--|
Ab|--4--4--4--4--5--5--5--5--0--|
Db|--4--4--4--4--5--5--5--5--0--|

BRIDGE/OUTRO:

Eb|---------------------------------|
Bb|---------------------------------|
Gb|---------------------------------|
Db|--0-4-4-4--0-4-4-4--0-4-4-5-4-0--|
Ab|--0-4-4-4--0-4-4-4--0-4-4-5-4-0--|
Db|--0-4-4-4--0-4-4-4--0-4-4-5-4-0--|
      pm.....  .......

Eb|---------------------------------|
Bb|---------------------------------|
Gb|---------------------------------|
Db|--0-4-4-4--0-4-4-4--0-4-4-5-4-0--|
Ab|--0-4-4-4--0-4-4-4--0-4-4-5-4-0--|
Db|--0-4-4-4--0-4-4-4--0-4-4-5-4-0--|
[ Tab from: http://www.guitaretab.com/d/deftones/21951.html ]
Related for Lotion tab
Lotion chords by Deftones