Song name
# A B C D E F G H I J K L M N O P Q R S T U V W X Y Z

Deftones - Rickets tab

Artist: Deftones
Album: Around The Fur
Song: Rickets

Tuning: Drop-D down 1/ step

Intro/chorus:
Eb|--------------------------|
Bb|--------------------------|
Gb|--------------------------|
Db|--------------------------|
Ab|-3p2p0-3p2p0-3p2p0-666666-|
Db|-3p2p0-3p2p0-3p2p0-666666-|

Pre-Verse:
Eb|---------------------------------------|
Bb|---------------------------------------|
Gb|---------------------------------------|
Db|---------------------------------------|
Ab|---------------------------------------|
Db|-3p2p0-3p2p0-3p2p0---3p2p0-3p2p0-3p2p0-|

Verse:
Eb|-----| |------------|
Bb|-----| |------------|
Gb|-----| |------------|
Db|-----| |------------|
Ab|-----| |------------|
Db|-2-2-| |-00-00-00-0-|
PM  . .     .. .. .. .

Bridge:
Eb|-12*---------12*----------|
Bb|-----12*---------12*------|
Gb|---------12*---------12*--|
Db|--------------------------|
Ab|--------------------------|
Db|--------------------------|

Eb|-6------| |---|
Bb|-5strum-| |-3-|
Gb|-3------| |-2-|
Db|--------| |-0-|
Ab|--------| |-0-|
Db|--------| |-0-|

Tap to rate this tab
# A B C D E F G H I J K L M N O P Q R S T U V W X Y Z