Song name
# A B C D E F G H I J K L M N O P Q R S T U V W X Y Z

Deftones - Christmas tab

---------------------------------------------------------------------
CHRISTMAS - Deftones
---------------------------------------------------------------------
Tabbed by: lifer
Email: paranoid_toaster@hotmail.com

Tuning: standard

e|-------------------------------------------------------------------|
B|-------------------------------------------------------------------|
G|--4/5--5--5--5/4---------------------------------------------------|
D|--2/3--3--3--3/2--2--2--x-x----------------------------------------|
A|--2/3--3--3--3/2--2--2--x-x----------------------------------------|
E|------------------0--0--x-x----------------------------------------|

e|-------------------------------------------------------------------|
B|-------------------------------------------------------------------|
G|-------------------------------------------------------------------|
D|--2--7--8--5--4----------------------------------------------------|
A|--2--7--8--5--4----------------------------------------------------|
E|--0--5--6--3--2----------------------------------------------------|

e|--------------------------------------------------------------------|
B|--------------------------------------------------------------------|
G|-----------------------5+b------------------------------------------|
D|--------------------------------------------------------------------|
A|--2---------2---------------2---------2-----------------------------|
E|--0-0-0-0-0-0-0-0-0-0-------0-0-0-0-0-0-0-6/5-0-6/5-00--------------|
 PM|-------------------|     |-------------|         |----------------|

e|--------------------------------|----------------------------------|
B|--------------------------------|----------------------------------|
G|--------------------------------|----------------------------------|
D|--2-2-2-2----2-2-2-8/7---8/7----|---8--7---------------------------|
A|--2-2-2-2----2-2-2-8/7---8/7----|---8--7---------------------------|
E|--0-0-0-0----0-0-0-6/5-0-6/5-0--|---6--5---------------------------|

e|---------------------------|---------------------------------------|
B|---------------------------|---5--6--8--6--5--3--6--8--------------|
G|---4--5--7--5--4--2--5--7--|---4--5--7--5--4--2--5--7--------------|
D|---2--3--5--3--2--0--3--5--|---2--3--5--3--2--0--3--5--------------|
A|---2--3--5--3--2--0--3--5--|---2--3--5--3--2--0--3--5--------------|
E|---------------------------|---------------------------------------|


************************************

| /   slide up
| \   slide down
| h   hammer-on
| p   pull-off
| ~   vibrato
| +   harmonic
| x   Mute note
| b   Bend
| pb  Pre-bend
| br  Bend release
| pbr Pre-bend release
| brb Bend release bend

************************************
Tap to rate this tab
 
# A B C D E F G H I J K L M N O P Q R S T U V W X Y Z