Song name
# A B C D E F G H I J K L M N O P Q R S T U V W X Y Z

Deftones - Birthmark tab

Deftones
Adrenaline
Birthmark

tuning: E-A-D-G-B-e  or
        D-G-C-F-A-D


Intro
|-12~-------12--------12~---------12-----------12~-------3~~~~~~-|
|--11~---------11------11~------------11--------11~------0~~~~~~-|
|---10~-----------10----10~---------------10-----10~-----0~~~~~~-|
|----0~------------------0~-----------------------0~-----2~~~~~~-|
|--------------------------------------------------0~----2~~~~~~-|
|--------------------------------------------------------0~~~~~~-|



|--------------------------------------------------------|
|--------------------------------------------------------|
|-----------------------------0-0--00-0--00-0--0---------|
|-9-9--99-9--99-9--9----------9-9--99-9--99-9--9---------|
|-7-7--77-7--77-7--7-10^--7---7-7--77-7--77-7--7-10^~-7--|2x
|-0-0--00-0--00-0--0-----8----0-0--00-0--00-0--0-----8---|



|--------------------------------------------------------|
|--------------------------------------------------------|
|--------------------------------------------------------|
|-2-55-444-4---2-55-444-4---2-55-444-4---2-55-444444-----|
|-2-55-444-4---2-55-444-4---2-55-444-4---2-55-444444-----|2x
|-0-33-222-2---0-33-222-2---0-33-222-2---0-33-222222-----|



|--------------------------------------------------------|
|--------------------------------------------------------|
|--------------------------------------------------------|
|--------------------------------------------------------|
|--------------------10^--7---7-7--77-7--77-7--7-10^--7--|
|-0-0--00-0--00-0--0-----8----0-0--00-0--00-0--0-----8---|

|--------------------------------------------------------|
|--------------------------------------------------------|
|-----------------------------0-0--00-0--00-0--0---------|
|-9-9--99-9--99-9--9----------9-9--99-9--99-9--9---------|
|-7-7--77-7--77-7--7-10^--7---7-7--77-7--77-7--7-10^~-7--|
|-0-0--00-0--00-0--0-----8----0-0--00-0--00-0--0-----8---|



|--------------------------------------------------------|
|--------------------------------------------------------|
|--------------------------------------------------------|
|-2-55-444-4---2-55-444-4---2-55-444-4---2-55-444444-----|
|-2-55-444-4---2-55-444-4---2-55-444-4---2-55-444444-----|2x
|-0-33-222-2---0-33-222-2---0-33-222-2---0-33-222222-----|



|--------------------------------------------------------|
|--------------------------------------------------------|
|--------------------------------------------------------|
|--------------------------------------------------------|
|--------------------------------------------------------|2x
|-0-0--00-0--00-0--00-0--00-0--00-0--00-0--00-0----------|

|--------------------------------------------------------|
|--------------------------------------------------------|
|-----------------------------0-0--00-0--00-0--0---------|
|-9-9--99-9--99-9--9----------9-9--99-9--99-9--9---------|
|-7-7--77-7--77-7--7-10^--7---7-7--77-7--77-7--7-10^~-7--|2x
|-0-0--00-0--00-0--0-----8----0-0--00-0--00-0--0-----8---|



|-----------------------------------------------------|--|-0~~~~~-|
|-----------------------------------------------------|--|-0~~~~~-|
|-----------------------------------------------------|--|-0~~~~~-|
|-2-55-444-4---2-55-444-4---2-55-444-4---2-55-444444--|--|-2~~~~~-|
|-2-55-444-4---2-55-444-4---2-55-444-4---2-55-444444--|4x|-2~~~~~-|
|-0-33-222-2---0-33-222-2---0-33-222-2---0-33-222222--|--|-0~~~~~-|

|----0~~~~~~---------0~~~~~~--|-----------------------------------|
|----3~~~~~~------33~0~~~~~~--|-----------------------------------|
|sss-2~~~~~~------22~0~~~~~~--|-----------------------------------|
|sss-0~~~~~~------00~2~~~~~~--|-----------------------------------|
|sss-0~~~~~~------00~2~~~~~~--|ssssssssssssssssssssssssssssssssss-|
|sss-----------------0~~~~~~--|ssssssssssssssssssssssssssssssssss-|



|------------------------------------------------------|
|------------------------------------------------------|
|------------------------------------------------------|
|-22---9-999-77-------------22---9-999-77--------------|
|-22---7-777-55---5-0-5/4---22---7-777-55---5-4-5/4----|2x
|-00--------------3-0-3/2---00--------------3-2-3/2----|

|------------------------------------------------------|
|------------------------------------------------------|
|------------------------------------------------------|
|-22------------------------22-------------------------|
|-22---7-777-55---5-0-5/4---22---7-777-55--10-1010/9---|
|-00--------------3-0-3/2---00-------------------------|

|------------------------------------------------------|
|------------------------------------------------------|
|------------------------------------------------------|
|-22------------------------22-------------------------|
|-22---7-777-55---5-0-5/4---22---7-777-55--10-1010\12--|
|-00--------------3-0-3/2---00-------------------------|

|------------------------------------------------------|
|------------------------------------------------------|
|------------------------------------------------------|
|-22---9-999-77-------------22---9-999-77--------------|
|-22---7-777-55---5-0-5/4---22---7-777-55---5-4-5/4----|
|-00--------------3-0-3/2---00--------------3-2-3/2----|

|--------------------------------------0~~~~---0~~~~~~-|
|--------------------------------------0~~~~---0~~~~~~-|
|--------------------------------------5~~~~---0~~~~~~-|
|-22---9-999-77-------------22---9-999-7~~~~---2~~~~~~-|
|-22---7-777-55---5-0-5/4---22---7-777-5~~~~---2~~~~~~-|
|-00--------------3-0-3/2---00-----------------0~~~~~~-|



By: Rekin Lukas Skinnyman


Tap to rate this tab
# A B C D E F G H I J K L M N O P Q R S T U V W X Y Z