Song name
# A B C D E F G H I J K L M N O P Q R S T U V W X Y Z

Deftones - Plastic tab

---------------------------------------------------------------------
                         PLASTIC - Deftones
---------------------------------------------------------------------
Tabbed by: lifer
Email: paranoid_toaster@hotmail.com

Tuning: standard

Main Riff

e|-------------------------------------------------------------------|
B|-------------------------------------------------------------------|
G|---6-6-7-6-6-66-6-6-7-6-1212-12-1212-------------------------------|
D|---6-6-7-6-6-66-6-6-7-6-1212-12-1212-------------------------------|
A|---4-4-5-4-4-44-4-4-5-4-1010-10-1010-------------------------------|
E|-------------------------------------------------------------------|

Verse
e|-------------------------------------------------------------------|
B|-------------------------------------------------------------------|
G|---6-6-7-6-6-66-6-6-7-6-1212-12-1212-------------------------------|
D|---6-6-7-6-6-66-6-6-7-6-1212-12-1212-------------------------------|
A|---4-4-5-4-4-44-4-4-5-4-1010-10-1010-------------------------------|
E|-------------------------------------------------------------------|
 Pm |--------------------|          

Other bit

e|--------------------------------------------------------------------|
B|--------------------------------------------------------------------|
G|---13----14-13-7--6666-7-6-66-6-66-6-6666-7-6-1212-12-1212----------|
D|------------------6666-7-6-66-6-66-6-6666-7-6-1212-12-1212----------|
A|---11----12-11-5--4444-5-4-44-4-44-4-4444-5-4-1010-10-1010----------|
E|--------------------------------------------------------------------|
 Pm                |----|   |--| |--| |----|

Strum that first chord a bit, dont just play it once. Too many strums
to tab out

Bridge
e|--------------------------------------------------------------------|
B|--------------------------------------------------------------------|
G|---14-13-7-6--------------------------------------------------------|
D|--------------------------------------------------------------------|
A|---12-11-5-4--------------------------------------------------------|
E|--------------------------------------------------------------------|

************************************

| /   slide up
| \   slide down
| h   hammer-on
| p   pull-off
| ~   vibrato
| +   harmonic
| x   Mute note
| b   Bend
| pb  Pre-bend
| br  Bend release
| pbr Pre-bend release
| brb Bend release bend

************************************
Tap to rate this tab
# A B C D E F G H I J K L M N O P Q R S T U V W X Y Z