Song name
# A B C D E F G H I J K L M N O P Q R S T U V W X Y Z

Deftones - Beware tab

-------------------------------------------------------------------------------
			     Beware - Deftones
-------------------------------------------------------------------------------
Tabbed by:Riff Driven
Email:forsaken.forever@yahoo.com


Tuning:CGCFAd

I'm tabbing this song out according to the album version,
please listen to the song for rhythm and timing.
This is played on a 6 string tuned down to "C G C F A d",
Chino plays all guitar until Stephen kicks in at the end
for the heavy stuff with a 7 string.

Hit the body of the guitar at the very start for opening distortion:

Intro:
d|----------------------------------------------------------------|
A|----------------------------------------------------------------|
F|-10------10------10------10------10------10------10------10-----|
C|-----12------12------12------12------12------12------12------12-|
G|----------------------------------------------------------------|
C|----------------------------------------------------------------|


Verse:
d|-------------------------------------------12------------------|
A|-----------------0----------------------10---------------------|
F|-10------10-------------10------10-----------------10----------|
C|-----12------12-----12------12------12---------12------12-(4x)-|
G|---------------------------------------------------------------|
C|---------------------------------------------------------------|


Pre-chorus:
d|----------------------------------------------------|------------------+5+-|
A|-4-----4-----4-----4-----4-----4-----4-----4--------|------------------+5+-|
F|----7-----7-----7-----7-----7-----7-----------7-----|-7-7-7-7-7-7-7-7------|
C|----------------------0-----------------0-------(3x)|-0-0-0-0-0-0-0-0------|
G|----------------------------------------------------|-----------------0----|
C|----------------------------------------------------|-----------------0----|


Chorus:
d|-----------------------------------------------------------------------------|
A|-----------------------------------------------------------------------------|
F|-14-14-14-14-14-14-14-14\9-9-9-9-9-9-9-9/14-14-14-14-14-14-14-14\12-12-12-12-|
C|-x--x--x--x--x--x--x--x--x-x-x-x-x-x-x-x-x--x--x--x--x--x--x--x--x--x--x--x--|
G|-12-12-12-12-12-12-12-12\8-8-8-8-8-8-8-8/12-12-12-12-12-12-12-12\10-10-10-10-|
C|-0--0--0--0--0--0--0--0--0-0-0-0-0-0-0-0-0--0--0--0--0--0--0--0--0--0--0--0--|

-------------|
-------------|
-12-12-12-12-|
-x--x--x--x--|
-10-10-10-10-|
-0--0--0--0--|


Verse 2:
d|----------------------------------------0h12----------------------------0---|
A|-----------------0----------------------0-------------------0---------------|
F|-10------10-------------10------10------10------10------10--x---10----------|
C|-----12------12-----12------12------12-------12-----12------12------12----12|
G|----------------------------------------------------------------------------|
C|----------------------------------------------------------------------------|


d|-------------------------------------------12------------------|
A|-----------------0----------------------10---------------------|
F|-10------10-------------10------10-----------------10----------|
C|-----12------12-----12------12------12---------12------12-(3x)-|
G|---------------------------------------------------------------|
C|---------------------------------------------------------------|


Pre-chorus:
d|----------------------------------------------------|-------------------|
A|-4-----4-----4-----4-----4-----4-----4-----4--------|-------------------|
F|----7-----7-----7-----7-----7-----7-----------7-----|-7-7-7-7-7-7-7-7---|
C|----------------------0-----------------0-------(3x)|-0-0-0-0-0-0-0-0-0-|
G|----------------------------------------------------|-----------------0-|
C|----------------------------------------------------|-----------------0-|


Chorus 2:
d|-----------------------------------------------------------------------------|
A|-----------------------------------------------------------------------------|
F|-14-14-14-14-14-14-14-14\9-9-9-9-9-9-9-9/14-14-14-14-14-14-14-14\12-12-12-12-|
C|-x--x--x--x--x--x--x--x--x-x-x-x-x-x-x-x-x--x--x--x--x--x--x--x--x--x--x--x--|
G|-12-12-12-12-12-12-12-12\8-8-8-8-8-8-8-8/12-12-12-12-12-12-12-12\10-10-10-10-|
C|-0--0--0--0--0--0--0--0--0-0-0-0-0-0-0-0-0--0--0--0--0--0--0--0--0--0--0--0--|

---------------------|
---------------------|
-12-12-12-12---------|
-x--x--x--x---0-(2x)-|
-10-10-10-10--0------|
-0--0--0--0---0------|


Breakdown 1:
d|-------------------------------------------------------------|
A|-------------------------------------------------------------|
F|-------------------------------------------------------------|
C|-------------------------------------------------------------|
G|-------------------------------------------------------------|
C|-5-5-5-5--55-5-0-11-11-11-11-11-11-11-11/-5-5-5-5--55-5-0-11-|


Keyboard arranged for guitar
d|------------------------------------------------------------------|
A|------------------------------------------------------------------|
F|------------------------------------------------------------------|
C|-------------------------------------------------------------(3x)-|
G|------------------------------------------------------------------|
C|-13-12-13-12-13-12-13-12-13-12-13-12-13-12-13-12-13-12-13-12------|


Chorus 3:
d|-----------------------------------------------------------------------------|
A|-----------------------------------------------------------------------------|
F|-14-14-14-14-14-14-14-14\9-9-9-9-9-9-9-9/14-14-14-14-14-14-14-14\12-12-12-12-|
C|-x--x--x--x--x--x--x--x--x-x-x-x-x-x-x-x-x--x--x--x--x--x--x--x--x--x--x--x--|
G|-12-12-12-12-12-12-12-12\8-8-8-8-8-8-8-8/12-12-12-12-12-12-12-12\10-10-10-10-|
C|-0--0--0--0--0--0--0--0--0-0-0-0-0-0-0-0-0--0--0--0--0--0--0--0--0--0--0--0--|

-----------------------|
-----------------------|
-12-12-12-12-----------|
-x--x--x--x---0-0-(2x)-|
-10-10-10-10--0-0------|
-0--0--0--0---0-0------|

d|----------------------------------------------------------------------------|
A|----------------------------------------------------------------------------|
F|-14-14-14-14-14-14-14-14-------------------------14-14-14-14-14-14-14-14----|
C|-x--x--x--x--x--x--x--x--10-10-10-10-10-10-10-10-x--x--x--x--x--x--x--x--10-|
G|-12-12-12-12-12-12-12-12-8--8--8--8--8--8--8--8--12-12-12-12-12-12-12-12-8--|
C|-0--0--0--0--0--0--0--0--8--8--8--8--8--8--8--8--0--0--0--0--0--0--0--0--8--|

-------------------------|
-------------------------|
-------------------------|
-10-10-10/12-12-12-12--0-|
-8--8--8-/10-10-10-10--0-|
-8--8--8-/10-10-10-10--0-|

d|----------------------------------------------------------------------------|
A|----------------------------------------------------------------------------|
F|-14-14-14-14-14-14-14-14-------------------------14-14-14-14-14-14-14-14\12-|
C|-x--x--x--x--x--x--x--x--10-10-10-10-10-10-10-10-x--x--x--x--x--x--x--x--x--|
G|-12-12-12-12-12-12-12-12-8--8--8--8--8--8--8--8--12-12-12-12-12-12-12-12\10-|
C|-0--0--0--0--0--0--0--0--8--8--8--8--8--8--8--8--0--0--0--0--0--0--0--0--0--|

-------------------------|
-------------------------|
-12-12-12-12-12-12-12----|
-x--x--x--x--x--x--x---0-|
-10-10-10-10-10-10-10--0-|
-0--0--0--0--0--0--0---0-|


Breakdown 2:
d|-----------------------------------------------|-------------------|
A|-----------------------------------------------|-------------------|
F|-----------------------------------------------|-------------------|
C|-------------------------------------------(3x)|-------------------|
G|-----------------------------------------------|-------------------|
C|-5-5---5-55-5-0-11-11-11-11-11-11-11-11-12-----|-5-5---5-55-5-0-11-|

let pickups feedback

Outro Riff:
d|-------------------------------------|
A|-------------------------------------|  Stephen kicks in with his 7 string
F|-------------------------------------|  and keeps the riff going while
C|--0-0-1-0--0--65-1--0-0-1-0---8-(2x)-|  Chino plays the next lead riff
G|--0-0-1-0--0--65-1--0-0-1-0---8------|
C|--0-0-1-0--0--65-1--0-0-1-0---8------|


Chino's Lead Riff
d|--12-------|-171717171717--13-------10---------|
A|--10-------|-101010101010--10-13-13----13------|
F|--10-------|-101010101010--10------------------|
C|-----(48x)-|------------------------------(4x)-|
G|-----------|-----------------------------------|
C|-----------|-----------------------------------|

then back to Outro Riff

End Riff:
d|-------------------------------------|
A|-------------------------------------|
F|-------------------------------------|
C|--0-0-1-0--0--65-1--0-0-1-0---8-(2x)-|
G|--0-0-1-0--0--65-1--0-0-1-0---8------|
C|--0-0-1-0--0--65-1--0-0-1-0---8------|

Enjoy!!


************************************

| /   slide up
| \   slide down
| h   hammer-on
| p   pull-off
| ~   vibrato
| +   harmonic
| x   Mute note
| b   Bend
| pb  Pre-bend
| br  Bend release
| pbr Pre-bend release
| brb Bend release bend
************************************
Tap to rate this tab
# A B C D E F G H I J K L M N O P Q R S T U V W X Y Z