Song name
# A B C D E F G H I J K L M N O P Q R S T U V W X Y Z

Deftones - My Own Summer tab

Tabbed by: Jan Wiegand (German)
Tuning: Drop Db

(Drum Intro)

  Verse
e|----------------------------------|----------------------------------|----------------------------------|
H|----------------------------------|----------------------------------|----------------------------------|
G|----------------------------------|----------------------------------|----------------------------------|
D|----------------------------------|----------------------------------|----------------------------------|
A|----------------------------------|----------------------------------|----------------------------------|
D|-0-11-12-0-11-8-0-8-0-8-7-0-8-5-5-|-0-11-12-0-11-8-0-8-0-8-7-0-8-5-5-|-0-11-12-0-11-8-0-8-0-8-7-0-8-5-5-|

				     (Bass setzt ein)
e|----------------------------------|----------------------------------|----------------------------------|
H|----------------------------------|----------------------------------|----------------------------------|
G|----------------------------------|----------------------------------|----------------------------------|
D|----------------------------------|----------------------------------|----------------------------------|
A|----------------------------------|----------------------------------|----------------------------------|
D|-0-11-12-0-11-8-0-8-0-8-7-0-8-5-5-|-0-11-12-0-11-8-0-8-0-8-7-0-8-5-5-|-0-11-12-0-11-8-0-8-0-8-7-0-8-5-5-|
			      Hey You,                          big star,                           Tell me

									Chorus
e|----------------------------------|----------------------------------|----------------------------------|
H|----------------------------------|----------------------------------|----------------------------------|
G|----------------------------------|----------------------------------|----------------------------------|
D|----------------------------------|----------------------------------|----------------------------------|
A|----------------------------------|----------------------------------|---0-7-8-0-8-5-0-5-0-5-7-0-8-4--4-|
D|-0-11-12-0-11-8-0-8-0-8-7-0-8-5-5-|-0-11-12-0-11-8-0-8-0-8-7-0-8-5-5-|---0-7-8-0-8-5-0-5-0-5-7-0-8-4--4-|
                              when    it's    o - v - e - r	    cloud

e|----------------------------------|----------------------------------|----------------------------------|
H|----------------------------------|----------------------------------|----------------------------------|
G|----------------------------------|----------------------------------|----------------------------------|
D|----------------------------------|----------------------------------|----------------------------------|
A|---0-7-8-0-8-5-0-5-0-5-7-0-8-4--4-|---0-7-8-0-8-5-0-5-0-5-7-0-8-4--4-|---0-7-8-0-8-5-0-5-0-5-7-0-8-4--4-|
D|---0-7-8-0-8-5-0-5-0-5-7-0-8-4--4-|---0-7-8-0-8-5-0-5-0-5-7-0-8-4--4-|---0-7-8-0-8-5-0-5-0-5-7-0-8-4--4-|
												   Hey You,
  Verse
e|----------------------------------|----------------------------------|----------------------------------|
H|----------------------------------|----------------------------------|----------------------------------|
G|----------------------------------|----------------------------------|----------------------------------|
D|----------------------------------|----------------------------------|----------------------------------|
A|----------------------------------|----------------------------------|----------------------------------|
D|-0-11-12-0-11-8-0-8-0-8-7-0-8-5-5-|-0-11-12-0-11-8-0-8-0-8-7-0-8-5-5-|-0-11-12-0-11-8-0-8-0-8-7-0-8-5-5-|
			       big mood,			Guide me 			       to

			             (Bass setzt ein)
e|----------------------------------|----------------------------------|----------------------------------|
H|----------------------------------|----------------------------------|----------------------------------|
G|----------------------------------|----------------------------------|----------------------------------|
D|----------------------------------|----------------------------------|----------------------------------|
A|----------------------------------|----------------------------------|----------------------------------|
D|-0-11-12-0-11-8-0-8-0-8-7-0-8-5-5-|-0-11-12-0-11-8-0-8-0-8-7-0-8-5-5-|-0-11-12-0-11-8-0-8-0-8-7-0-8-5-5-|
   s - h - e - l - t - e - r  `cause  i'm through                When the two		       hits the six

									Chorus
e|----------------------------------|----------------------------------|----------------------------------|
H|----------------------------------|----------------------------------|----------------------------------|
G|----------------------------------|----------------------------------|----------------------------------|
D|----------------------------------|----------------------------------|----------------------------------|
A|----------------------------------|----------------------------------|---0-7-8-0-8-5-0-5-0-5-7-0-8-4--4-|
D|-0-11-12-0-11-8-0-8-0-8-7-0-8-5-5-|-0-11-12-0-11-8-0-8-0-8-7-0-8-5-5-|---0-7-8-0-8-5-0-5-0-5-7-0-8-4--4-|
                         And it's        s - u - m - m - e - r      Cloud  C-o-m-e        (shove it)

e|----------------------------------|----------------------------------|-----------------------------------|
H|----------------------------------|----------------------------------|-----------------------------------|
G|----------------------------------|----------------------------------|-----------------------------------|
D|----------------------------------|----------------------------------|-----------------------------------|
A|---0-7-8-0-8-5-0-5-0-5-7-0-8-4--4-|---0-7-8-0-8-5-0-5-0-5-7-0-8-4--4-|---0-7-8-0-8-5-0-5-0-5-7-0-8-4--4--|
D|---0-7-8-0-8-5-0-5-0-5-7-0-8-4--4-|---0-7-8-0-8-5-0-5-0-5-7-0-8-4--4-|---0-7-8-0-8-5-0-5-0-5-7-0-8-4--4--|
    S-h-o-v-e       (shove 
        T-h-e   S-u-n   (shove
       A-s-i-d-e   (shove it aside)

  Bridge
e|----------------------------------|----------------------------------|----------------------------------|
H|----------------------------------|----------------------------------|----------------------------------|
G|----------------------------------|----------------------------------|----------------------------------|
D|-8-8-8-8-8-8-8-8-8-8-8-8-8-8-8-8--|-5-5-5--8--0---5-5-5--8-8--0-0----|-8-8-8-8-8-8-8-8-8-8-8-8-8-8-8-8--|
A|-8-8-8-8-8-8-8-8-8-8-8-8-8-8-8-8--|-5-5-5--8--0---5-5-5--8-8--0-0----|-8-8-8-8-8-8-8-8-8-8-8-8-8-8-8-8--|
D|-8-8-8-8-8-8-8-8-8-8-8-8-8-8-8-8--|-5-5-5--8--0---5-5-5--8-8--0-0----|-8-8-8-8-8-8-8-8-8-8-8-8-8-8-8-8--|
  I think g-o-d is m-o-v-i-n-g   It's      t - o - n - g - u - e      There are no
in the streets   And

e|----------------------------------|
H|----------------------------------|
G|----------------------------------|
D|-5-5-5--8--0---5-5-5--8-8--0-0----|
A|-5-5-5--8--0---5-5-5--8-8--0-0----|
D|-5-5-5--8--0---5-5-5--8-8--0-0----| Ton ausklingen lassen
   no      s - u - n

e|------------------------------------------|   The shade is a tool,
H|------------------------------------------|   A device, a savior
G|------------------------------------------|   See, I try
D|-------------Pause------------------------|   And look up
A|---Bass spielt 8 Takte alleine------------|   To the sky
D|------------------------------------------|   But my eyes burn

  Chorus
e|----------------------------------|----------------------------------|-----------------------------------|
H|----------------------------------|----------------------------------|-----------------------------------|
G|----------------------------------|----------------------------------|-----------------------------------|
D|----------------------------------|----------------------------------|-----------------------------------|
A|---0-7-8-0-8-5-0-5-0-5-7-0-8-4--4-|---0-7-8-0-8-5-0-5-0-5-7-0-8-4--4-|---0-7-8-0-8-5-0-5-0-5-7-0-8-4--4--|
D|---0-7-8-0-8-5-0-5-0-5-7-0-8-4--4-|---0-7-8-0-8-5-0-5-0-5-7-0-8-4--4-|---0-7-8-0-8-5-0-5-0-5-7-0-8-4--4--|
Cloud   C-o-m-e        (shove it)      S-h-o-v-e       (shove 
       T-h-e
    (shove it)

e|----------------------------------|----------------------------------|-----------------------------------|
H|----------------------------------|----------------------------------|-----------------------------------|
G|----------------------------------|----------------------------------|-----------------------------------|
D|----------------------------------|----------------------------------|-----------------------------------|
A|---0-7-8-0-8-5-0-5-0-5-7-0-8-4--4-|---0-7-8-0-8-5-0-5-0-5-7-0-8-4--4-|---0-7-8-0-8-5-0-5-0-5-7-0-8-4--4--|
D|---0-7-8-0-8-5-0-5-0-5-7-0-8-4--4-|---0-7-8-0-8-5-0-5-0-5-7-0-8-4--4-|---0-7-8-0-8-5-0-5-0-5-7-0-8-4--4--|
    A-s-i-d-e   (shove it aside)       
       (shove it)
      (shove it)

									Bridge
e|----------------------------------|----------------------------------|----------------------------------|
H|----------------------------------|----------------------------------|----------------------------------|
G|----------------------------------|----------------------------------|----------------------------------|
D|----------------------------------|----------------------------------|-8-8-8-8-8-8-8-8-8-8-8-8-8-8-8-8--|
A|---0-7-8-0-8-5-0-5-0-5-7-0-8-4--4-|---0-7-8-0-8-5-0-5-0-5-7-0-8-4--4-|-8-8-8-8-8-8-8-8-8-8-8-8-8-8-8-8--|
D|---0-7-8-0-8-5-0-5-0-5-7-0-8-4--4-|---0-7-8-0-8-5-0-5-0-5-7-0-8-4--4-|-8-8-8-8-8-8-8-8-8-8-8-8-8-8-8-8--|
    T-h-e   S-u-n     (shove it)      
    (shove it

    I think g-o-d is  m-o-v-i-n-g

e|----------------------------------|----------------------------------|----------------------------------|
H|----------------------------------|----------------------------------|----------------------------------|
G|----------------------------------|----------------------------------|----------------------------------|
D|-5-5-5--8--0---5-5-5--8-8--0-0----|-8-8-8-8-8-8-8-8-8-8-8-8-8-8-8-8--|-5-5-5--8--0---5-5-5--8-8--0-0----|
A|-5-5-5--8--0---5-5-5--8-8--0-0----|-8-8-8-8-8-8-8-8-8-8-8-8-8-8-8-8--|-5-5-5--8--0---5-5-5--8-8--0-0----|
D|-5-5-5--8--0---5-5-5--8-8--0-0----|-8-8-8-8-8-8-8-8-8-8-8-8-8-8-8-8--|-5-5-5--8--0---5-5-5--8-8--0-0----|
It's     t - o - n - g - u - e     There are no crowds in the streets  And   no     s - u - n

e|----------------------------------|----------------------------------|------------------------------|
H|----------------------------------|----------------------------------|------------------------------|
G|----------------------------------|----------------------------------|------------------------------|
D|-5-5-5--8--0---5-5-5--8-8--0-0----|-5-5-5--8--0---5-5-5--8-8--0-0----|-5-5-5--8--0---5-5-5--8-8--0--|
A|-5-5-5--8--0---5-5-5--8-8--0-0----|-5-5-5--8--0---5-5-5--8-8--0-0----|-5-5-5--8--0---5-5-5--8-8--0--|
D|-5-5-5--8--0---5-5-5--8-8--0-0----|-5-5-5--8--0---5-5-5--8-8--0-0----|-5-5-5--8--0---5-5-5--8-8--0--|
                  In          m - y              o - w -
                  s-u-m-m-e-r

  Outro
e|----------------------------------|----------------------------------|-----------------------------------|
H|----------------------------------|----------------------------------|-----------------------------------|
G|----------------------------------|----------------------------------|-----------------------------------|
D|----------------------------------|----------------------------------|-----------------------------------|
A|---0-7-8-0-8-5-0-5-0-5-7-0-8-4--4-|---0-7-8-0-8-5-0-5-0-5-7-0-8-4--4-|---0-7-8-0-8-5-0-5-0-5-7-0-8-4--4--|
D|---0-7-8-0-8-5-0-5-0-5-7-0-8-4--4-|---0-7-8-0-8-5-0-5-0-5-7-0-8-4--4-|---0-7-8-0-8-5-0-5-0-5-7-0-8-4--4--|
    C-o-m-e        (shove it)            S-h-o-v-e       (shove 
      T-h-e
    (shove it)

e|----------------------------------||
H|----------------------------------||
G|----------------------------------||
D|----------------------------------||
A|---0-7-8-0-8-5-0-5-0-5-7-0-8-4----||
D|---0-7-8-0-8-5-0-5-0-5-7-0-8-4----||
   A-s-i-d-e     (shove it aside)

Its a 100% correct song, I hope.
Tap to rate this tab
 
# A B C D E F G H I J K L M N O P Q R S T U V W X Y Z