Deftones - Rocket Skates tab

Deftones - Rocket Skates (8 string version)
Tuning: eBGDAEBF#

Key: Pull-off: p
     Harmonic: 
     Palm Mute *
Intro
       Play Bar x6             [----------------Play x2------------]
e||---------------------------|--------------<5>-|-----------------|
B||---------------------------|--------------<5>-|-----------------|
G||---------------------------|--------------<5>-|-----------------|
D||---------------------------|------------------|-----------------|
A||---------------------------|------------------|-----------------|
E||---------------------------|5-5-7-5-5-7-8-----|5-5-7-5-5-7-8-12-|
B||-0-7p0-0-7p0-0-7p0-3p0-2p0-|5-5-7-5-5-7-8-----|5-5-7-5-5-7-8-12-|
F#|---------------------------|3-3-5-3-3-5-6-----|3-3-5-3-3-5-6-10-|

Verse
   [-----------------------------------------Play x4---------------------------------]
e||---------------------|--------------------|---------------------------------------|
B||---------------------|--------------------|---------------------------------------|
G||---------------------|--------------------|---------------------------------------|
D||---------------------|--------------------|---------------------------------------|
A||---------------------|--------------------|---------------------------------------|
E||-5--5-5-5-5--5-5-5-5-|--5-5-5-5--5-5-5-5--|5-5-5-5--5-5-5-------------------------|
B||-5--5-5-5-5--5-5-5-5-|--5-5-5-5--5-5-5-5--|5-5-5-5--5-5-5-7p0-3p0-2p0-7p0-3p0-2p0-|
F#|-3--3-3-3-3--3-3-3-3-|--3-3-3-3--3-3-3-3--|3-3-3-3--3-3-3-------------------------|
       * * *    * * *      * * *    * * *     * * *    * * *

Chorus
    Guns.. Razors......

       Play Bar x6             [----------------Play x2------------]
e||---------------------------|--------------<5>-|-----------------|
B||---------------------------|--------------<5>-|-----------------|
G||---------------------------|--------------<5>-|-----------------|
D||---------------------------|------------------|-----------------|
A||---------------------------|------------------|-----------------|
E||---------------------------|5-5-7-5-5-7-8-----|5-5-7-5-5-7-8-12-|
B||-0-7p0-0-7p0-0-7p0-3p0-2p0-|5-5-7-5-5-7-8-----|5-5-7-5-5-7-8-12-|
F#|---------------------------|3-3-5-3-3-5-6-----|3-3-5-3-3-5-6-10-|

Song Structure
Intro
Verse
Chorus
Verse
Chorus
Interlude (Verse)
Chorus
Verse
Tap to rate this tab
 
# A B C D E F G H I J K L M N O P Q R S T U V W X Y Z