Song name
# A B C D E F G H I J K L M N O P Q R S T U V W X Y Z

Deftones - Prince tab

Art: Deftones
Sng: Prince
Alb: Diamond Eyes
Tun: CGCFAD (Down 1 Step & Drop D)
Ack: All credit goes to @waitthat

[Ammended intro/verse for tuning]

Intro/Verse (clean-ish)

D|-----------------------------------------------------------------|
A|-------------------------------4*--------------------------------|
F|-----------------------------------------------------------------|
C|-----------------------------------------------------------------|
G|---5-------------------------------------------------------------|
C|-5---5-4-5-3-5-6-------------------------------------------------|

D|-----------------------------------------------------------------|
A|-------------------------------4*--------------------------------|
F|-------------------------------------------------------3---------|
C|-----------------------------------------------------------------|
G|---5-------------------------------------------------------------|
C|-5---5-4-5-3-5-6-------------------------------------------------|

D|-----------------------------------------------------------------|
A|-------------------------------4*--------------------------------|
F|---------------------------------------------------------------3-|
C|-------------------------------------------------------5---------|
G|---5-------------------------------------------------------------|
C|-5---5-4-5-3-5-6-------------------------------------------------|

D|-----------------------------------------------------------------|
A|-------------------------------4*--------------------------------|
F|-------------------------------------------------------------4/7-|
C|-------------------------------------------------------------2/5-|
G|---5---------------------------------------------------------2/5-|
C|-5---5-4-5-3-5-6---------------------------------------------2/5-|
							

Chorus (distortion)

D|-----------------------------------------------------------------|
A|-----------------------------------------------------------------|
F|-7-7-7-7-7-7-7-7-7-7-7-7-7-7-2-2-5\3-3-3-3-3-3-3-3-3-3-3-3-3-3-3-|
C|-5-5-5-5-5-5-5-5-5-5-5-5-5-5-0-0-3\1-1-1-1-1-1-1-1-1-1-1-1-1-1-1-|
G|-5-5-5-5-5-5-5-5-5-5-5-5-5-5-0-0-3\1-1-1-1-1-1-1-1-1-1-1-1-1-1-1-|
C|-5-5-5-5-5-5-5-5-5-5-5-5-5-5-0-0-3\1-1-1-1-1-1-1-1-1-1-1-1-1-1-1-|


Bridge

D|-----------------------------------------------------------------|
A|-----------------------------------------------------------------|
F|-2-2-2-2-2-2-2-2-2-2-2-2-2-2-2-3-7\3-3-3-3-3-3-3-----------------|
C|-0-0-0-0-0-0-0-0-0-0-0-0-0-0-0-1-5\1-1-1-1-1-1-1-----------------|
G|-0-0-0-0-0-0-0-0-0-0-0-0-0-0-0-1-5\1-1-1-1-1-1-1-----------------|
C|-0-0-0-0-0-0-0-0-0-0-0-0-0-0-0-1-5\1-1-1-1-1-1-1-2b4r2-----------|

D|---------------|
A|---------------|
F|---------------|
C|-0-0-0-0-------|
G|-0-0-0-0-------|
C|-0-0-0-0-2b4r2-|
   *PM*PM*
Tap to rate this tab
 
# A B C D E F G H I J K L M N O P Q R S T U V W X Y Z