Deftones - Youve Seen The Butcher tab

Artist: Deftones
Album: You've Seen The Butcher Single
Song: You've Seen The Butcher(Midnight Airport Version)
Tabbed By: A Dead Fly

This is the acoustic version of You've seen the Butcher by Deftones.
There's not a lot to this song, but it's still fun to play!

One guitar with standard tuning


Verse:

e|--------------------|
B|--------------------|
G|-----2---0----------| Plays this 4 times
D|-4------------------|
A|--------------------|
E|--------------------|


Prechorus:

Switches between Fm and G chords, this is for the first prechorus,
listen to the others to get the exact strum patterns and dead notes.

        Fm         G

e|----|-2--2-------3-------------|--2--2--2----3-----------|
B|----|-2--2-------3-----------x-|--2--2--2----3-----------|
G|----|-2--2-------4-----------x-|--2--2--2----4-----------|
D|-2--|-4--4-------5-----------x-|--4--4--4----5-----------|
A|----|-4--4-------5-------------|--4--4--4----5-----------|
E|----|-2--2-------3-------------|--2--2--2----3-----------|

--2--2--2-2--3-----------|--2--2--2-2--3----3----3--3-------|
--2--2--2-2--3-----------|--2--2--2-2--3----3----3--3-------|
--2--2--2-2--4-----------|--2--2--2-2--4----4----4--4-------|
--4--4--4-4--5-----------|--4--4--4-4--5----5-x--5--5-------|
--4--4--4-4--5-----------|--4--4--4-4--5----5-x--5--5-------|
--2--2--2-2--3-----------|--2--2--2-2--3----3-x--3--3-x-----|


Chorus:

Just plays a Bm chord over and over:

   Bm

e|-2--------------|
B|-3--------------|
G|-4--------------|
D|-4--------------|
A|-2--------------|
E|----------------|

Song Order:

Verse x1

Prechorus x1

Chorus x1

Verse x1

Prechorus x1

Chorus x1

Verse x1

Prechorus x1

Chorus x2

Verse x1

Email questions or comments to azlizard13@yahoo.com
Please give me credit if you use this tab for a video
Tap to rate this tab
 
# A B C D E F G H I J K L M N O P Q R S T U V W X Y Z