Song name
# A B C D E F G H I J K L M N O P Q R S T U V W X Y Z

Deftones - Street Carp tab

Deftones - Street Carp
From "White Pony" album
Song length - 2:41
Tuning - Drop C
tabbed by blindfold

(0:00 - 0:03)
D|-------------------|
A|-------------------|
F|-------------------|
C|-444444444/8888888-|
G|-222222222/6666666-|
C|-------------------|

(0:03 - 0:21)
D|---------------------------------------------------------|
A|---------------------------------------------------------|
F|---------------------------------------------------8-8-8-|
C|-6-7-6-0-6-9-6-0-6-7-6-0-6-9-6-0-4-4-4-4-4-4-4-4-4-x-x-x-|
G|-6-7-6-0-6-9-6-0-6-7-6-0-6-9-6-0-2-2-2-2-2-2-2-2-2/6-6-6-|
C|-6-7-6-0-6-9-6-0-6-7-6-0-6-9-6-0-------------------------|

(0:21 - 0:24)
D|---------------------------------|
A|---------------------------------|
F|---------------------------------|
C|-6-7-6-0-6-9-6-0-6-7-6-0-6-9-6-0-|
G|-6-7-6-0-6-9-6-0-6-7-6-0-6-9-6-0-|
C|-6-7-6-0-6-9-6-0-6-7-6-0-6-9-6-0-|

(0:24 - 0:38)
D|--------------------------------------------------------|
A|--------------------------------------------------------|
F|-8-8-8-8-8-8-8-8-8-8-8-8-9--9\--4-4-4-4-4-4-4-4-4-4-4-4-|
C|-6-6-6-6-6-6-6-6-6-6-6-6-7--7\--2-2-2-2-2-2-2-2-2-2-2-2-|
G|-6-6-6-6-6-6-6-6-6-6-6-6-7--7\--2-2-2-2-2-2-2-2-2-2-2-2-|
C|-6-6-6-6-6-6-6-6-6-6-6-6--------2-2-2-2-2-2-2-2-2-2-2-2-|

(0:38 - 0:41)
D|-------------------|
A|-------------------|
F|-------------------|
C|-444444444/8888888-|
G|-222222222/6666666-|
C|-------------------|

(0:41 - 0:59)
D|---------------------------------------------------------|
A|---------------------------------------------------------|
F|---------------------------------------------------8-8-8-|
C|-6-7-6-0-6-9-6-0-6-7-6-0-6-9-6-0-4-4-4-4-4-4-4-4-4-x-x-x-|
G|-6-7-6-0-6-9-6-0-6-7-6-0-6-9-6-0-2-2-2-2-2-2-2-2-2/6-6-6-|
C|-6-7-6-0-6-9-6-0-6-7-6-0-6-9-6-0-------------------------|

(0:59 - 1:02)
D|---------------------------------|
A|---------------------------------|
F|---------------------------------|
C|-6-7-6-0-6-9-6-0-6-7-6-0-6-9-6-0-|
G|-6-7-6-0-6-9-6-0-6-7-6-0-6-9-6-0-|
C|-6-7-6-0-6-9-6-0-6-7-6-0-6-9-6-0-|

(1:02 - 1:29)
D|--------------------------------------------------------|
A|--------------------------------------------------------|
F|-8-8-8-8-8-8-8-8-8-8-8-8-9--9\--4-4-4-4-4-4-4-4-4-4-4-4-|
C|-6-6-6-6-6-6-6-6-6-6-6-6-7--7\--2-2-2-2-2-2-2-2-2-2-2-2-|
G|-6-6-6-6-6-6-6-6-6-6-6-6-7--7\--2-2-2-2-2-2-2-2-2-2-2-2-|
C|-6-6-6-6-6-6-6-6-6-6-6-6--------2-2-2-2-2-2-2-2-2-2-2-2-|

(1:29 - 1:40)
D|---------------------------------|
A|---------------------------------|
F|---------------------------------|
C|-6-7-6-0-6-9-6-0-6-7-6-0-6-9-6-0-|
G|-6-7-6-0-6-9-6-0-6-7-6-0-6-9-6-0-|
C|-6-7-6-0-6-9-6-0-6-7-6-0-6-9-6-0-|

(1:40 - 2:07)
D|--------------------------------------------------------|
A|--------------------------------------------------------|
F|-8-8-8-8-8-8-8-8-8-8-8-8-9--9\--4-4-4-4-4-4-4-4-4-4-4-4-|
C|-6-6-6-6-6-6-6-6-6-6-6-6-7--7\--2-2-2-2-2-2-2-2-2-2-2-2-|
G|-6-6-6-6-6-6-6-6-6-6-6-6-7--7\--2-2-2-2-2-2-2-2-2-2-2-2-|
C|-6-6-6-6-6-6-6-6-6-6-6-6--------2-2-2-2-2-2-2-2-2-2-2-2-|

(2:07 - 2:29)
D|---------------------------------|
A|---------------------------------|
F|---------------------------------|
C|-6-7-6-0-6-9-6-0-6-7-6-0-6-9-6-0-|
G|-6-7-6-0-6-9-6-0-6-7-6-0-6-9-6-0-|
C|-6-7-6-0-6-9-6-0-6-7-6-0-6-9-6-0-|

(2:29 - 2:41)
D|---------------------------------| 
A|---------------------------------| 
F|---------------------------------| 
C|---------------------------------| 
G|---------------------------------| 
C|-6-7-6-0-6-9-6-0-6-7-6-0-6-9-6-0-|
Tap to rate this tab
# A B C D E F G H I J K L M N O P Q R S T U V W X Y Z