Song name
# A B C D E F G H I J K L M N O P Q R S T U V W X Y Z

Deftones - Pink Maggit tab

			     Pink Maggit - Deftones
-------------------------------------------------------------------------------
Tabbed by: Headbanger89

This tab will be updated. I wasn't able to figure out the tuning, but it
sounds okay in standard.

Intro:
e|----------------------------|
B|----------------------------|
G|----------------------------|
D|-----7*-----9*-----6*----3*-|
A|---7------7------4-----1----|
E|-7------7------4-----1------|

From intro until 3:43:
e|----------------------------------------|
B|----------------------------------------|
G|----------------------------------------|
D|-----7*-----9*-----6*-4-66-7/6/3-----7*-|
A|---7------7------4-----------------4----|
E|-7------7------4-----------------4------|

Then:                         Variation:
e|-------------------------|  e|----------------------------------|
B|-------------------------|  B|----------------------------------|
G|-10----10----7-----7-----|  G|-10----10----12-----14-----15-----|
D|-8-----0-----5-----4-----|  D|-8-----0-----0------0------0------|
A|-8-x20-0-x20-5-x20-4-x20-|  A|-8-x20-8-x20-10-x20-12-x10-13-x10-|
E|-8-----0-----5-----4-----|  E|-8-----x-----x------x------x------|

At last (this is a bit blurry to me, and I'm not near a guitar.. will be updated)
e|----------------------------------------------------------|
B|----------------------------------------------------------|
G|----------------------------------------------------------|
D|---7*--9*--6*--7*-----7*-----9*-----6*-4-66-7/6/3*-----7*-|
A|--7---7---4---4-----7------7------4------------------4----|
E|-7---7---4---4----7------7------4------------------4------|

| *  let ring
| /  slide up
| \  slide down
| h  hammer-on
| p  pull-off
| ~  vibrato
| +  harmonic
| x  Mute note
===============================================================================
Tap to rate this tab
# A B C D E F G H I J K L M N O P Q R S T U V W X Y Z