Song name
# A B C D E F G H I J K L M N O P Q R S T U V W X Y Z

Deftones - Uuddlrlrabselectstar tab

G|--------------------------|
D|----11--11---12--11-------|
A|999---99--999--99--555-5~-|
E|--------------------------|

G|-------------------------------|
D|----11--11---12--11------------|
A|999---99--999--99--555-5~------|
E|-------------------------------|     x2 (both of them, do the riff 4 times)



At 40 seconds, the riff changes to this
G|------------99--------------|
D|--------------11------------|
A|999999999999-------55555555-|
E|----------------------------|
Tap to rate this tab
# A B C D E F G H I J K L M N O P Q R S T U V W X Y Z