Song name
# A B C D E F G H I J K L M N O P Q R S T U V W X Y Z

Deftones - Digital Bath tab

Artist:|: Deftones
Song  :|: Digital Bath
Album :|: White Pony
Tuning:|: CGCFAD

b: bend
/: slide


Riff 1
D:|----------------------------------------------------------------------------------------|:
A:|----------------------------------------------------------------------------------------|:
F:|---------------------------------------------6-----------------6---6----------------6---|:
C:|--7-----------------7---7----------------7---7-----------------7---7----------------7---|: (x2)
G:|--4-----------------0---4----------------0---4-----------------0---4----------------0---|:
C:|--4-----------------0---4----------------0---4-----------------0---4----------------0---|:

Riff 2
D:|--------------------------------------------|:
A:|--------------------------------------------|:
F:|--11--11--11-11-11--11--14---14---17---16---|:
C:|--x---x---x--x--x---x---x----x----x----x----|:     (x2)
G:|--9---9---9--9--9---9---12---12---15---14---|:
C:|--0---------------------0-------------------|:

Lead In
D:|--------------------------------------------|:
A:|--------------------------------------------|:
F:|--------------------------------------------|:
C:|------4b5----2------------4b5---2-----------|:
G:|-----------------2------------------2-------|:
C:|--2-------------------2---------------------|:

Chorus 
D:|-------------------------------------------------------------------------------------------|:
A:|-------------------------------------------------------------------------------------------|:
F:|--------------------------------------------6--6-6--6-6-6-6-6-6---6--6-6--6-6-6-6-6-6------|:
C:|--7--7-7--7-7-7-7-7-7---7--7-7--7-7-7-7-7---7--7-7--7-7-7-7-7-7---7--7-7--7-7-7-7-7-7--7~~~|:
G:|--4--4-4--4-4-4-4-4-0---4--4-4--4-4-4-4-0---4--4-4--4-4-4-4-4-4---4--4-4--4-4-4-4-4-4--0~~~|:
C:|--4--4-4--4-4-4-4-4-0---4--4-4--4-4-4-4-0---4--4-4--4-4-4-4-4-4---4--4-4--4-4-4-4-4-4--0~~~|:

Fill
D:|--------------------------------------------------|:
A:|----------7/8/7--5----------------7/8/7--5--------|:
F:|----------x-x-x--x----------------x-x-x--x--------|:
C:|--2---2---4/5/4--2--------2---2---4/5/4--2--------|:
G:|--2---2---------------2---2---2------------2------|:
C:|--2---2-------------------2---2-------------------|:



:|: This is my interpretation of this song. I do not claim any level of accuracy 
with this tablature :|:
:|: This tablature was written based on what I hear when listening to the 
transcribed song           :|:
Tap to rate this tab
 
# A B C D E F G H I J K L M N O P Q R S T U V W X Y Z