Song name
# A B C D E F G H I J K L M N O P Q R S T U V W X Y Z

Deftones - Bloody Cape tab

A#
F#
D
A
E
A


RIFF1

------------------------|
-5---5---5-5---5---5-5--|
-6---6---6-6---6---6-6--|          ( 2X )
------------------------|
-4---4---4-4---4---4-4--|
------------------------|

------------------------|
------------------------|
-5---5---5-5---5---5-5--|
-7---7---7-7---7---7-7--|           (2 X)
-0---0---0-0---0---0-0--|
------------------------|

RIFF2

-------------------------------------------------------|
-------------------------------------------------------|
-------------------------------------------------------|
-0-1-1--0-1-1--0-1-1--0-1-1--1-0-0-7--7-7--7--7-7-7----|
-0-1-1--0-1-1--0-1-1--0-1-1--1-0-0---------------------|
-0-1-1--0-1-1--0-1-1--0-1-1--1-0-0-7--7-7--7--7-7-7----|

--------------------------------------------------------|
--------------------------------------------------------|
--------------------------------------------------------|
-0-1-1--0-1-1--0-1-1--0-1-1--1-0-0-7--7-7--7--7-7-7-9-9-|
-0-1-1--0-1-1--0-1-1--0-1-1--1-0-0----------------------|
-0-1-1--0-1-1--0-1-1--0-1-1--1-0-0-7--7-7--7--7-7-7-9-9-|
Tap to rate this tab
 
# A B C D E F G H I J K L M N O P Q R S T U V W X Y Z