Guitaretab - guitar tabs
Song name
# A B C D E F G H I J K L M N O P Q R S T U V W X Y Z

Deftones - Feiticeira tab

Feiticeira intro
by: Cyrus
Deftones
Tuning: Drop C
For the rest of the song, the first tab of feiticeria on ultimate-guitar has all
rest correct.

Tempo: 150 bpm
this motherfucker is kinda crazy, but just practice it like hell and itíll become
easy I saw a tab that says it changes from 4/4 to 3/4 but I just tabbed it in 2/4
with sixteenth notes on the fast part

    All of these are eighth notes (2 per beat)       |(sixteenth)
D|------------------|------------------|----------------------|
A|------------------|------------------|----------------------|
F|--11--11--11--11--|--11--11--11--11--|--11--11--11---6---6--|
C|------------------|------------------|----------------------|
B|--9---9---9---9---|--9---9---9---9---|--9---9---9----4---4--|
C|------------------|------------------|----------------------|
    1   &   2  &      1   &  2   &     1   &   2   &   a
                                                   d  u

Sixteenth notes(rests) 
    |  | (eighth notes)
D|-------------------|
A|-----r-------------|
F|--6--e--7---6---0--|
C|-----s----------0--|
B|--4--t--5---4---0--|
C|-------------------|
    1  &  a   2   &
    d     u   d   d

[ Tab from: http://www.guitaretab.com/d/deftones/29444.html ]
        (eighth notes)         (accent)    |(sixteenth)
D|---------------------|-------------------|      
A|---------------------|-(12)--------------| 
F|---10---11--11---11--|--11--11--11--6--6-|\
C|---------------------|-------------------|   \
B|---8----9---9----9---|--9---9---9---4--4-|      \
C|---------------------|-------------------|         \
     1   &  2   &     1   &   2    &  a            \
                                   d  u              \
                                                      x6
Sixteenth notes(rests) 
    |  | (eighth notes)                                   /
D|-------------------|                                 /
A|-----r-------------|                              /
F|--6--e--7---6---0--|                           /
C|-----s----------0--|                        /
B|--4--t--5---4---0--|                     /
C|-------------------|                  /
    1  &  a   2   &
    d     u   d   d

(eighth notes)         (accent)    
D|---------------------|-----------------|      
A|---------------------|-(12)------------| 
F|---10---11--11---11--|--11--11--11-----|
C|---------------------|-----------------|
B|---8----9---9----9---|--9---9---9------|
C|---------------------|-----------------|

D|------------------------|      
A|------------------------| 
F|------------------------|
C|--0--8--0--4--0---------|
B|--0--8--0--4--0---------|
C|--0--8--0--4--0---------|

Related for Feiticeira tab