Guitaretab - guitar tabs
Song name
# A B C D E F G H I J K L M N O P Q R S T U V W X Y Z

Deftones - Dai The Flu tab

I'm not sure this is completely right? But it's probs the closest you'll find on the net to date

Bass Intro
F|----------|-------------|
C|----------|-------------|
G|----------|-------------|
C|-2/-10/-5-|-2/-10/-5/-6-|
[ Tab from: http://www.guitaretab.com/d/deftones/29990.html ]
Chorus 
D|------------------------|---------------------------------|
A|------------------------|---------------------------------|
F|-7--7-/6-/7--7-/6-/7-/6-|-9-9-9-9-9-9-9-9-9-9-9-9-9-9-9-9-|
C|------------------------|---------------------------------|
G|-5--5-/4-/5--5-/4-/5-/4-|-8-8-8-8-8-8-8-8-8-8-8-8-8-8-8-8-|
C|-0--0-/0-/0--0-/0-/0-/0-|---------------------------------|

Buildup
D|----------------------------------------|
A|----------------------------------------|
F|----------------------------------------|
C|-0--0-0-3-3-3-3-4-4-4-4-3-3-3-3-3-3-3-3-|
G|-0--0-0-3-3-3-3-4-4-4-4-1-1-1-1-1-1-1-1-|
C|-0--0-0-3-3-3-3-4-4-4-4-----------------|

That's the basics. There's also the lead over the buildup/breakdown at the end
Related for Dai The Flu tab
Advertisement will be closed in 10 seconds