Song name
# A B C D E F G H I J K L M N O P Q R S T U V W X Y Z

Deftones - Needles And Pins tab

Band: The Deftones
Song: Needles and Pins
Album: Deftones
Tuning: (G#)C#F#BEG#C#
Tabbed by: deftonesfan91

Hey guys, chances are if you are looking for this tab you haven't found shit that's
worth it. Well, look no further! For all you guys out there without 7-strings do not fret!
You can still play it on a six string! And to all of you with 7-strings, if you haven't 
figured the song out already then i'm sure you will be happy. Oh yeah, by the way, this was
all done by ear. Questions or comments welcome cherrywaves20@gmail.com

6-string intro/verse        7-string intro/verse
C#|-----------------|       C#|----------|
G#|-----------------|       G#|----------|
E |---14------------|       E |----------|
B |------14----14---|       B |--7-------|
F#|---------------12|       F#|---7---7--|
C#|13-------13------|       C#|---------5|
PM  .        .              G#|6----6----|
                            PM .    .

C#|-------------------------|
G#|-------------------------|
E |-------------------------|
B |6-6-6-6-2-2-2-2-7-7-7-7-7|
F#|6-6-6-6-2-2-2-2-7-7-7-7-7|
C#|4-4-4-4-0-0-0-0-5-5-5-5-5|

6-string 1st chorus                   7-string 1st chorus
C#|-------------------------|         C#|-------------------------|
G#|-------------------------|         G#|-------------------------|
E |----2---2---2-2-2--------|         E |-------------------------|
B |3-3-2-3-2---2-2-2-3-7-7--|         B |----7---7---7-7-7---7-7--|
F#|3-3-0-3-0-3-0-0-0-3-----7|         F#|8-8-7-8-7-7-7-7-7-8-----7|
C#|1-1---1-----------1------|         C#|8-8-5-8-5-8-5-5-5-8------|
                                      G#|6-6---6-----------6------|

The rest is all repeats except for this lick
C#|--------------|C#|---------|
G#|--------------|G#|---------|
E |---14----14---|E |---------|
B |------14------|B |--7---7--|
F#|------------12|F#|----7----|
C#|13------------|C#|--------5|
                  G#|6--------|
Tap to rate this tab
 
# A B C D E F G H I J K L M N O P Q R S T U V W X Y Z