Song name
# A B C D E F G H I J K L M N O P Q R S T U V W X Y Z

Deftones - Knife Party tab

Transcribed by: Jason C.
E-mail: coz200059@hotmail.com 
Tuning: C G C F A D

Intro/Verse: Clean with Chorus Pedal/or Light Flange
D|-------------------------------------------------------|
A|-------------------------------------------------------|
F|-------------------------------------------------------|
C|-5-5-5-5-5-5-5-5-5-5-5-5-5-5/9-9-9-9--9-9-9-9-10-10-9-9|
G|-3-3-3-3-3-3-3-3-3-3-3-3-3-3/7-7-7-7--7-7-7-7-7--7--7-7|
C|-3-3-3-3-3-3-3-3-3-3-3-3-3-3/7-7-7-7--7-7-7-7-7--7--7-7|

Main Verse
D|-------------------------------------------------------|
A|-------------------------------------------------------|
F|-5--5-5--5--5-5----------------------------------------|
C|-3--3-3--3--3-3---9-9-9--9-9-10-10-9-9-----------------|
G|-3--3-3--3--3-3---7-7-7--7-7-7--7--7-7-----------------|
C|-3--3-3--3--3-3---7-7-7--7-7-7--7--7-7-----------------|

Chorus: "Come get your knife...etc."
D|-------------------------------------------------------|
A|-------------------------------------------------------|
F|-----------------------10-10-9-----9-9-9-9-9-9---------|
C|-8-8-8-8-8-8-8-8-8-8-8-x--x--x-----x-x-x-x-x-x---------|
G|-8-8-8-8-8-8-8-8-8-8-8-8--8--7-----7-7-8-7-7-7---------|
C|-8-8-8-8-8-8-8-8-8-8-8---------------------------------|

End Chorus on this...
D|-0~---|
A|-1~---|
F|-2~---|
C|-2~---|
G|-0~---|
C|-0~---|

Bridge: Clean with Chorus, then distored afetr a few times. LET RING
D|-0~----0~-----|
A|-1~----1~-----|
F|-2~----2~-----|
C|-2~----2~-----|
G|-0~----0~-----|
C|-------0~-----|

play where Chino screams. Played clean. Repeat, then go back into chorus. 
Tap to rate this tab
# A B C D E F G H I J K L M N O P Q R S T U V W X Y Z