Song name
# A B C D E F G H I J K L M N O P Q R S T U V W X Y Z

Deftones - Rosemary tab

Deftones- Rosemary
Created by: Kenny *aka* Deftoner664
Album : Koi No Yokan
Tuning: A#GCFAD

This song was learned by ear with the leaked studio tape recording of Rosemary.
 I tried to integrate all the guitar parts to be played on a 6 string guitar.
Note that Stephen Carpenter is using an 8 string guitar, so the timbre is
different on a 6 (especially during the heavy outro).
The majority is what Chino Moreno is playing. A helpful hint to get Chino's tone
is to have alot of reverb,chorus with some depth, and a bit of delay to get

that dreamy sound.

You can use my tab, but please give me credit for it, if you post this elsewhere!



Intro
 D|------------------5---------------------------5----------------------------|
 A|--------------3----------------------------3-------------------------------|
 F|-----------3----------------------------3----------------------------------|
 C|---------------------------------------------------------------------------|
 G|---------------------------------------------------------------------------|
 A#|--------------------------------------------------------------------------|

 D|---------------------------------------------------------------------------|
 A|---------------------------------------------------------------------------|
 F|-----2-----------------5------5h7/10 (slight vibrato bend) -----10---------|
 C|----------3----------------------------------------------------------------|
 G|---------------------------------------------------------------------------|
 A#|--------------2(let ring)-------------------------------------------------|

 D|---------------------------------------------------------------------------|
 A|----------------------------------------10---------------------------------|
 F|------2---------------5-------5h7/10--------9------------------------------|
 C|----------3----------------------------------------------------------------|
 G|---------------------------------------------------------------------------|
 A#|-------------(2)----------------------------------------------------------|

 D|---------------------------------------------------------------------------|
 A|---------------------------------------------------------------------------|
 F|-----2-----------------5------5h7/10v -----10------------------------------|
 C|----------3----------------------------------------------------------------|
 G|---------------------------------------------------------------------------|
 A#|---------------2(let ring)------------------------------------------------|

 D|---------------------------------------------------------------------------|
 A|---------------------------------------------------------------------------|
 F|---------------------------------------------------------------------------|
 C|---------3-3---------3h5-5-------------------------------------------------|
 G|---------------h5-------------3h5------------------------------------------|
 A#|--------------------------------------------------------------------------|


 D|---------------------------------------------------------------------------|
 A|------------------------0 (let ring)----------------------------0----------|
 F|---------------------------------------------------------------------------|
 C|---------------------------------------------------------------------------|
 G|---------------------------------------------------------------------------|
 A#|--------0h2------0h2------------0h2---0h2--0h2---0h2--0h2--0h2-----0h2----|
 That's Sergio's bass line but you can play it too.

 "There's no sound..."
D|----------------------------------------------------------------------------|
 A|---------------------------------------------------------------------------|
 F|-----2-----------------5------5h7/10 (slight vibrato bend) -----10---------|
 C|----------3----------------------------------------------------------------|
 G|---------------------------------------------------------------------------|
 A#|---------------2(let ring)------------------------------------------------|

D|----------------------------------------------------------------------------|
 A|-------------------------------------------10------------------------------|
 F|------2---------------5-------5h7/10---------9-----------------------------|
 C|----------3----------------------------------------------------------------|
 G|---------------------------------------------------------------------------|
 A#|-------------(2)----------------------------------------------------------|

D|----------------------------------------------------------------------------|
 A|---------------------------------------------------------------------------|
 F|-----2-----------------5------5h7/10 (slight vibrato bend) -----10---------|
 C|----------3----------------------------------------------------------------|
 G|---------------------------------------------------------------------------|
 A#|---------------(2)--------------------------------------------------------|

 D|---------------------------------------------------------------------------|
 A|---------------------------------------------------------------------------|
 F|---------------------------------------------------------------------------|
 C|---------3-3---------3h5-5-------------------------------------------------|
 G|---------------h5-------------3h5------------------------------------------|
 A#|--------------------------------------------------------------------------|

D|-----------------------------------------------------------------------------|
 A|----------------------------------------------------------------------------|
 F|----------------------------------------------------------------------------|
 C|----------------------------------------------------------------------------|
 G|---0-0-0-------3-3---------------------------------------3-3-3-3-3-3-5-5-5-5|
 A#|--2-2-2-2-2-2-0-0------2-2-2-2-2-3h2p3-0-2--2-2-2-2-2-2-0-0-5-5-5-5-7-7-7-7|


"Time!.." (listen for timing on this riff same notes just different with palm muted downbeats)

D|---------------------------------------------------------------------------------|
 A|--------------------------------------------------------------------------------|
 F|--------------------------------------------------------------------------------|
 C|--------------------------------------------------------------------------------|
 G|---0-0-0-------3pm-3pm---------------------------------------3-3-3-3-3-3-5-5-5-5|
 A#|--2-2-2-2-2-2-0pm-0pm------2-2-2-2-2-3h2p3-0-2--2-2-2-2-2-2-0-0-5-5-5-5-7-7-7-7|

"Our mind's bend..."

D|----------------------------------------------------------------------------|
 A|---------------------------------------------------------------------------|
 F|-----2-----------------5------5h7/10 (slight vibrato bend) -----10---------|
 C|----------3----------------------------------------------------------------|
 G|---------------------------------------------------------------------------|
 A#|---------------2(let ring)------------------------------------------------|

D|----------------------------------------------------------------------------|
 A|-------------------------------------------10------------------------------|
 F|------2---------------5-------5h7/10---------9-----------------------------|
 C|----------3----------------------------------------------------------------|
 G|---------------------------------------------------------------------------|
 A#|-------------(2)----------------------------------------------------------|

D|----------------------------------------------------------------------------|
 A|---------------------------------------------------------------------------|
 F|-----2-----------------5------5h7/10 (slight vibrato bend) ----------------|
 C|----------3----------------------------------------------------------------|
 G|---------------------------------------------------------------------------|
 A#|---------------(2)--------------------------------------------------------|

 D|---------------------------------------------------------------------------|
 A|---------------------------------------------------------------------------|
 F|---------------------------------------------------------------------------|
 C|---------3-3---------3h5-5-------------------------------------------------|
 G|---------------h5-------------3h5------------------------------------------|
 A#|--------------------------------------------------------------------------|

D|---------------------------------------------------------------------------------|
 A|--------------------------------------------------------------------------------|
 F|--------------------------------------------------------------------------------|
 C|--------------------------------------------------------------------------------|
 G|---0-0-0-------3pm-3pm-------------------------------------------3-3-3-3-5-5-5-5|
 A#|--2-2-2-2-2-2-0pm-0pm------2-2-2-2-2-3h2p3-0-2--2-2-2-2-2-2-0-0-5-5-5-5-7-7-7-7|

"Stay with me..." (Listen for the rhythm to get the strumming right and chord changes)

D|------------------------------------------|
 A|-----------------------------------------|
 F|-----9-9-9--4-4-4/5-5-5-5-4-4-4-4--------|       X3
 C|-----X-x-X--x-x-x-5-5-5-5-5-5-5-5--------|
 G|-----7-7-7--2-2-2/3-3-3-3-3-3-3-3--------|
 A#|----------------------------------------|

Break Down (listen for accents on the down beat. He does some bends on the 2nd fret)

D|----------------------------------------------------------------------------|
 A|---------------------------------------------------------------------------|
 F|---------------------------------------------------------------------------|
 C|---------------------------------------------------------------------------|
 G|---------------------------------------------------------------------------|
 A#|----0h2-0h2-0h2-0h2-0h2-0h2---0h2-0h2-0h2-0h2-0h2-0h2pm-------------------|

"We slow down..."
D|----------------------------------------------------------------------------|
 A|---------------------------------------------------------------------------|
 F|-----2-----------------5------5h7/10 (slight vibrato bend) -----10---------|
 C|----------3----------------------------------------------------------------|
 G|---------------------------------------------------------------------------|
 A#|---------------2(let ring)------------------------------------------------|

D|----------------------------------------------------------------------------|
 A|-------------------------------------------10------------------------------|
 F|------2---------------5-------5h7/10---------9-----------------------------|
 C|----------3----------------------------------------------------------------|
 G|---------------------------------------------------------------------------|
 A#|-------------(2)----------------------------------------------------------|

D|----------------------------------------------------------------------------|
 A|---------------------------------------------------------------------------|
 F|-----2-----------------5------5h7/10v -------------------------------------|
 C|----------3----------------------------------------------------------------|
 G|---------------------------------------------------------------------------|
 A#|---------------(2)--------------------------------------------------------|

 D|---------------------------------------------------------------------------|
 A|---------------------------------------------------------------------------|
 F|---------------------------------------------------------------------------|
 C|---------3-3---------3h5-5-------------------------------------------------|
 G|---------------h5-------------3h5------------------------------------------|
 A#|--------------------------------------------------------------------------|

"Time!.."

 D|-----------------------------------------------------------------------------------|
 A|-----------------------------------------------------------------------------------|
 F|-----------------------------------------------------------------------------------|
 C|-----------------------------------------------------------------------------------| X2
 G|---0-0-0-------3pm-3pm-------------------------------------------3-3-3-3-5-5-5-5---|
 A#|--2-2-2-2-2-2-0pm-0pm------2-2-2-2-2-3h2p3-0-2-2-2-2-2-2-2-0-0--5-5-5-5-7-7-7-7---|

"Stay with me..." (Listen for the rhythm to get the strumming right and chord changes)

 D|-----------------------------------------|
 A|-----------------------------------------|
 F|-----9-9-9--4-4-4/5-5-5-5-4-4-4-4--------|       X6
 C|-----X-x-X--x-x-x-5-5-5-5-5-5-5-5--------|
 G|-----7-7-7--2-2-2/3-3-3-3-3-3-3-3--------|
 A#|----------------------------------------|


Steph's Heavy Breakdown (listen for timing)

 D|----------------------------------------------------------------------------------------------|
 A|----------------------------------------------------------------------------------------------|
 F|----------------------------------------------------------------------------------------------|
 C|----------------------------------------------------------------------------------------------|
 G|----------------------------------------------------------------------------------------------|
 A#|-h1p0--3h2---h2p0--3h2--h2p0---3h2--h1p0---3h2--h2p0-0-0-h2p0-3h2--h1p0 3h2-h1p0--h2p0--3h2--|


Outro

 D|------------9------------------------------------------9------------------------------|
 A|----------12---12--------------- 0-----------12--12--12--12--------0----------12------|
 F|--------11-----------11(bend)----6---------11--11--11-------11b----6--------11--------| x5
 C|------9--------------9-------9---7--7----9----9---9---------9---9--7--7----9----------|
 G|---------------------10----------5--------------------------10-----5------------------|
 A#|-------------------------------------------------------------------------------------|
Tap to rate this tab
 
# A B C D E F G H I J K L M N O P Q R S T U V W X Y Z