Song name
# A B C D E F G H I J K L M N O P Q R S T U V W X Y Z

Deftones - What Happened To You tab

-------------------------------------------------------------------------------
                                                   WHAT HAPPENED TO YOU? - Deftones
-------------------------------------------------------------------------------

THIS TAB IS TO BE USED AS A GUIDELINE AND IS IN NO WAY 100% ACCURATE

Tabbed by: desertscoldmoon
Tuning: E-B-E-A-D-G-B-E

LISTEN FOR TIMING
E|--------------------------------------------|
B|--------------------------------------------|
G|-2--------3----5-(slowly release palm mute)-|
D|--------------------------------------------|
A|--------------------------------------------| x1
E|--------------------------------------------|
B|--------------------------------------------|
E|--------------------------------------------|
   .        .    .

E|--------------------------------------------|
B|--------------------------------------------|
G|-3--3--3-3-3-2br--2-2-2-2-2-2-2-------------|
D|--------------------------------3-3-3-3-----|
A|----------------------------------------5br-| x2
E|--------------------------------------------|
B|--------------------------------------------|
E|--------------------------------------------|


LISTEN FOR TIMING
E|---------------------------------------------|
B|---------------------------------------------|
G|-3----2----3----5-(slowly release palm mute)-|
D|---------------------------------------------|
A|---------------------------------------------| x1
E|---------------------------------------------|
B|---------------------------------------------|
E|---------------------------------------------|
   .    .    .    .

E|--------------------------------------------|
B|--------------------------------------------|
G|-3--3--3-3-3-2br--2-2-2-2-2-2-2-------------|
D|--------------------------------3-3-3-3-----|
A|----------------------------------------5br-| x4
E|--------------------------------------------|
B|--------------------------------------------|
E|--------------------------------------------|


LISTEN FOR TIMING
E|-------------------------|
B|-------------------------|
G|-10-10-10-10\7-7-7-7/14b-|
D|-------------------------|
A|-------------------------| x2
E|-------------------------|
B|-------------------------|
E|-------------------------|


LISTEN FOR TIMING
E|---------------------------------------------------|
B|---------------------------------------------------|
G|-3----2----3----5-(slowly release palm mute)-5/7-7-|
D|---------------------------------------------------|
A|---------------------------------------------------| x1
E|---------------------------------------------------|
B|---------------------------------------------------|
E|---------------------------------------------------|
   .    .    .    .

LISTEN FOR TIMING
E|-------------------------|
B|-------------------------|
G|-10-10-10-10\7-7-7-7/14b-|
D|-------------------------|
A|-------------------------| x4
E|-------------------------|
B|-------------------------|
E|-------------------------|


E|----------------------------------------------------------------|
B|-15----15----17-------17----17----18----18----18-------18----18-|
G|----14----14----14-14----14----14----14----14----14-14----14----|
D|----------------------------------------------------------------|
A|----------------------------------------------------------------|
E|----------------------------------------------------------------|
B|----------------------------------------------------------------|
E|----------------------------------------------------------------|


E|------------------------------------------------------------------|
B|-15----15----17-------17----17----18----18----18-------17b----17b-|
G|----14----14----14-14----14----14----14----14----14-14-----14-----|
D|------------------------------------------------------------------|
A|------------------------------------------------------------------|
E|------------------------------------------------------------------|
B|------------------------------------------------------------------|
E|------------------------------------------------------------------|


E|----------------------------------------------------------------|
B|-15----15----17-------17----17----18----18----18-------18----18-|
G|----14----14----14-14----14----14----14----14----14-14----14----|
D|----------------------------------------------------------------|
A|----------------------------------------------------------------|
E|----------------------------------------------------------------|
B|----------------------------------------------------------------|
E|----------------------------------------------------------------|


E|------------------------------------------------------------------|
B|-15----15----17-------17----17----18----18----18-------17b----17b-|
G|----14----14----14-14----14----14----14----14----14-14-----14-----|
D|------------------------------------------------------------------|
A|------------------------------------------------------------------|
E|------------------------------------------------------------------|
B|------------------------------------------------------------------|
E|------------------------------------------------------------------|


E|---------------------|
B|---------------------|
G|-3~~--2~~--3~~--5~~--|
D|---------------------|
A|---------------------| x1
E|---------------------|
B|---------------------|
E|---------------------|
Tap to rate this tab
# A B C D E F G H I J K L M N O P Q R S T U V W X Y Z