Song name
# A B C D E F G H I J K L M N O P Q R S T U V W X Y Z

Deftones - Tempest tab

-------------------------------------------------------------------------------
                                                         TEMPEST - Deftones
-------------------------------------------------------------------------------

THIS TAB IS TO BE USED AS A GUIDELINE AND IS IN NO WAY 100% ACCURATE

Tabbed by: desertscoldmoon
Tuning: E-B-E-A-D-G-B-E


E|---------------------|
B|---------------------|
G|---------------------|
D|---0---------------0-|
A|--0-----PAUSE-----0--|
E|-3---------------3---|
B|---------------------|
E|---------------------|


E|--------------------------------------|
B|------------------|-------------------|
G|-7----2----5----7-|-------7----2----5-|
D|-X----X----X----X-|-X2----X----X----X-|
A|-5----0----3----5-|-------5----0----3-|
E|------------------|-------------------|
B|--------------------------------------|
E|--------------------------------------|


E|------------------------------|
B|------------------------------|
G|------------------------------|
D|------------------------------|
A|-------------5--5-5-5-5-5-5-5-| x12
E|-------------X--x-x-x-x-x-x-x-|
B|-1-1-1-------3br3-3-3-3-3-3-3-|
E|-------1-1-1------------------|


E|---------------------------------|
B|---------------------------------|
G|---------------------------------|
D|---------------------------------|
A|---------------------------------| x4
E|---------------------------------|
B|-4p3-3-4p3-3-4p3-6p3-3-6p3-3-6p3-|
E|---------------------------------|

STRUM:
E|------------------------------------|
B|------------------------------------|
G|------------------------------------|
D|------------------------------------|
A|-5----8----10-10/11\10--10-10/11\10-| x2
E|-5----8----10-10/11\10--10-10/11\10-|
B|-3----6----8--8-/9-\8---8--8-/9-\8--|
E|------------------------------------|


E|------------------------------|
B|------------------------------|
G|------------------------------|
D|------------------------------|
A|-------------5--5-5-5-5-5-5-5-| x8
E|-------------X--x-x-x-x-x-x-x-|
B|-1-1-1-------3br3-3-3-3-3-3-3-|
E|-------1-1-1------------------|


E|---------------------------------|
B|---------------------------------|
G|---------------------------------|
D|---------------------------------|
A|---------------------------------| x4
E|---------------------------------|
B|-4p3-3-4p3-3-4p3-6p3-3-6p3-3-6p3-|
E|---------------------------------|


STRUM:
E|------------------------------------|
B|------------------------------------|
G|------------------------------------|
D|------------------------------------|
A|-5----8----10-10/11\10--10-10/11\10-| x2
E|-5----8----10-10/11\10--10-10/11\10-|
B|-3----6----8--8-/9-\8---8--8-/9-\8--|
E|------------------------------------|


BREAK


E|--------------------------------|
B|--------------------------------|
G|-7--------7----2----5-----------|
D|-x--------x----x----x--FEEDBACK-|
A|-5--------5----0----3-----------|
E|--------------------------------|
B|--------------------------------|
E|--------------------------------|


E|---------------------------------------------------------------------------------------------|
B|---------------------------------------------------------------------------------------------|
G|---------------------------------------------------------------------------------------------|
D|---------------------------------------------------------------------------------------------|
A|-5-5-5------------5-5-5--5-5-5----------------5-5-5------------5-5-5--5-5-5------------------| x2
E|-x-x-x------------x-x-x--x-x-x----------------x-x-x------------x-x-x--x-x-x------------------|
B|-3-3-3------------3-3-3--3-3-3----------------3-3-3------------3-3-3--3-3-3------------------|
E|-------1-1-1--4b---------------1-1-1--4b--4b--------1-1-1--4b---------------1-1-1--4b--4b-4b-|


STRUM:
E|------------------------------------|
B|------------------------------------|
G|------------------------------------|
D|------------------------------------|
A|-5----8----10-10/11\10--10-10/11\10-| x4
E|-5----8----10-10/11\10--10-10/11\10-|
B|-3----6----8--8-/9-\8---8--8-/9-\8--|
E|------------------------------------|


E|---------------------------------------------------------------------------------------------|
B|---------------------------------------------------------------------------------------------|
G|---------------------------------------------------------------------------------------------|
D|---------------------------------------------------------------------------------------------|
A|-5-5-5------------5-5-5--5-5-5----------------5-5-5------------5-5-5--5-5-5------------------| x1
E|-x-x-x------------x-x-x--x-x-x----------------x-x-x------------x-x-x--x-x-x------------------|
B|-3-3-3------------3-3-3--3-3-3----------------3-3-3------------3-3-3--3-3-3------------------|
E|-------1-1-1--4b---------------1-1-1--4b--4b--------1-1-1--4b---------------1-1-1--4b--4b-4b-|


E|---------------------------------------------------------------------------------------------|
B|---------------------------------------------------------------------------------------------|
G|---------------------------------------------------------------------------------------------|
D|---------------------------------------------------------------------------------------------|
A|-5-5-5------------5-5-5--5-5-5----------------5-5-5------------5-5-5--5-5-5------------------| x1
E|-x-x-x------------x-x-x--x-x-x----------------x-x-x------------x-x-x--x-x-x------------------|
B|-3-3-3------------3-3-3--3-3-3----------------3-3-3------------3-3-3--3-3-3------------------|
E|-------1-1-1--4b---------------1-1-1--4b--4b--------1-1-1--4b---------------1-1-1--4b~~~~~~~-|
Tap to rate this tab
# A B C D E F G H I J K L M N O P Q R S T U V W X Y Z