Song name
# A B C D E F G H I J K L M N O P Q R S T U V W X Y Z

Deftones - Poltergeist tab

-------------------------------------------------------------------------------
                                                  POLTERGEIST - Deftones
-------------------------------------------------------------------------------

THIS TAB IS TO BE USED AS A GUIDELINE AND IS IN NO WAY 100% ACCURATE

Tabbed by: desertscoldmoon
Tuning: E-B-E-A-D-G-B-E

E|--------------------------------|
B|--------------------------------|
G|--------------------------------|
D|--------------------------------|
A|--------------------------------| x8
E|--------------------------------|
B|--------------------------------|
E|-12p0-0-12p0-0-12p0-0--11-11-11-|


E|--------------------------------------------------|
B|--------------------------------------------------|
G|--------------------------------------------------|
D|--------------------------------------------------|
A|-6-8-8------11-11--11-11-11-11--11-11-11-9-9-9/11-|
E|-4-6-6--11--11-11--11-11-11-11--11-x--x--x-x-x-x--|
B|-4-6-6--11--9--9---9--9--9--9---9--9--9--7-7-7/9--|
E|--------11----------------------------------------|


E|--------------------------------------------------------|
B|--------------------------------------------------------|
G|--------------------------------------------------------|
D|--------------------------------------------------------|
A|-6-8-8------11-11--11-11-11-11--11-11/14-14\11-11/14-14-|
E|-4-6-6--11--11-11--11-11-11-11--11-x--x--x--x--x--x--x--|
B|-4-6-6--11--9--9---9--9--9--9---9--9-/12-12\9--9/ 12-12-|
E|--------11----------------------------------------------|


E|--------------------------------------------------|
B|--------------------------------------------------|
G|--------------------------------------------------|
D|--------------------------------------------------|
A|-6-8-8------11-11--11-11-11-11--11-11-11-9-9-9/11-|
E|-4-6-6--11--11-11--11-11-11-11--11-x--x--x-x-x-x--|
B|-4-6-6--11--9--9---9--9--9--9---9--9--9--7-7-7/9--|
E|--------11----------------------------------------|


E|--------------------------------------------------------|
B|--------------------------------------------------------|
G|--------------------------------------------------------|
D|--------------------------------------------------------|
A|-6-8-8------11-11--11-11-11-11--11-14-14-14-14-14\11-11-|
E|-4-6-6--11--11-11--11-11-11-11--11-x--x--x--x--x--x--x--|
B|-4-6-6--11--9--9---9--9--9--9---9--12-12-12-12-12\9--9--|
E|--------11----------------------------------------------|


E|--------------------------------------------------|
B|--------------------------------------------------|
G|--------------------------------------------------|
D|-9-9-9-9--9-9-9/11-11-11-11-11------9-9-9-9-9-9-9-|
A|-9-9-9-9--9-9-9/11-11-11-11-11------x-x-x-x-x-x-x-|
E|-6-6-6-6--6-6-6/9--9--9--9--9--0----7-7-7-7-7-7-7-|
B|-6-6-6-6--6-6-6/9--9--9--9--9--0------------------|
E|-6-6-6-6--6-6-6/9--9--9--9--9--0------------------|


E|--------------------------------------------------|
B|--------------------------------------------------|
G|--------------------------------------------------|
D|-9-9-9-9--9-9-9/11-11-11-11-11------9-9-9-9-9-9-6-|
A|-9-9-9-9--9-9-9/11-11-11-11-11------x-x-x-x-x-x-x-|
E|-6-6-6-6--6-6-6/9--9--9--9--9--0----7-7-7-7-7-7-4-|
B|-6-6-6-6--6-6-6/9--9--9--9--9--0------------------|
E|-6-6-6-6--6-6-6/9--9--9--9--9--0------------------|


E|-------------------------------|
B|-------------------------------|
G|-------------------------------|
D|-------------------------------|
A|-------------------------------| x4
E|-------------------------------|
B|-------------------------------|
E|-12p0-0-12p0-0-12p0-0-11-11-11-|


E|-------------------------|
B|-------------------------|
G|-------------------------|
D|-------------------------|
A|-7-----7-----7-----6-6-6-| x4
E|-7-----7-----7-----6-6-6-|
B|-5-0-0-5-0-0-5-0-0-4-4-4-|
E|---0-0---0-0---0-0-------|
     . .   . .   . .

E|--------------------------------------------------|
B|--------------------------------------------------|
G|--------------------------------------------------|
D|--------------------------------------------------|
A|-6-8-8------11-11--11-11-11-11--11-11-11-9-9-9/11-|
E|-4-6-6--11--11-11--11-11-11-11--11-x--x--x-x-x-x--|
B|-4-6-6--11--9--9---9--9--9--9---9--9--9--7-7-7/9--|
E|--------11----------------------------------------|


E|--------------------------------------------------------|
B|--------------------------------------------------------|
G|--------------------------------------------------------|
D|--------------------------------------------------------|
A|-6-8-8------11-11--11-11-11-11--11-11/14-14\11-11/14-14-|
E|-4-6-6--11--11-11--11-11-11-11--11-x--x--x--x--x--x--x--|
B|-4-6-6--11--9--9---9--9--9--9---9--9-/12-12\9--9/ 12-12-|
E|--------11----------------------------------------------|


E|--------------------------------------------------|
B|--------------------------------------------------|
G|--------------------------------------------------|
D|--------------------------------------------------|
A|-6-8-8------11-11--11-11-11-11--11-11-11-9-9-9/11-|
E|-4-6-6--11--11-11--11-11-11-11--11-x--x--x-x-x-x--|
B|-4-6-6--11--9--9---9--9--9--9---9--9--9--7-7-7/9--|
E|--------11----------------------------------------|


E|--------------------------------------------------------|
B|--------------------------------------------------------|
G|--------------------------------------------------------|
D|--------------------------------------------------------|
A|-6-8-8------11-11--11-11-11-11--11-14-14-14-14-14\11-11-|
E|-4-6-6--11--11-11--11-11-11-11--11-x--x--x--x--x--x--x--|
B|-4-6-6--11--9--9---9--9--9--9---9--12-12-12-12-12\9--9--|
E|--------11----------------------------------------------|


E|--------------------------------------------------------------------------|
B|--------------------------------------------------------------------------|
G|--------------------------------------------------------------------------|
D|-5-5-5-5--5-5--5-5-5-------8-8-8-8--8-----8-----8--8-8-8-8--8-----8-----8-|
A|-5-5-5-5--5-5--5-5-5--7----8-8-8-8--8-----8-----8--8-8-8-8--8-----8-----8-|
E|-2-2-2-2--2-2--2-2-2--7----6-6-6-6--6-----6-----6--6-6-6-6--6-----6-----6-|
B|-2-2-2-2--2-2--2-2-2--5----6-6-6-6--6-6-6-6-6-6-6--6-6-6-6--6-6-6-6-6-6-6-|
E|-2-2-2-2--2-2--2-2-2--0----6-6-6-6--6-6-6-6-6-6-6--6-6-6-6--6-6-6-6-6-6-6-|
                                        . .   . .               . .   . .

BREAK

E|-------------------------------|
B|-------------------------------|
G|-------------------------------|
D|-------------------------------|
A|-------------------------------| x3
E|-------------------------------|
B|-------------------------------|
E|-12p0-0-12p0-0-12p0-0-11-11-11-|


E|-----------------|
B|-----------------|
G|-----------------|
D|-----------------|
A|-----------------| X1
E|-----------------|
B|-----------------|
E|-12p0-0-12p0-0-12|


E|--------------------------------------------------|
B|--------------------------------------------------|
G|--------------------------------------------------|
D|-9-9-9-9--9-9-9/11-11-11-11-11------9-9-9-9-9-9-9-|
A|-9-9-9-9--9-9-9/11-11-11-11-11------x-x-x-x-x-x-x-|
E|-6-6-6-6--6-6-6/9--9--9--9--9--0----7-7-7-7-7-7-7-|
B|-6-6-6-6--6-6-6/9--9--9--9--9--0------------------|
E|-6-6-6-6--6-6-6/9--9--9--9--9--0------------------|


E|--------------------------------------------------|
B|--------------------------------------------------|
G|--------------------------------------------------|
D|-9-9-9-9--9-9-9/11-11-11-11-11------9-9-9-9-9-9-6-|
A|-9-9-9-9--9-9-9/11-11-11-11-11------x-x-x-x-x-x-x-|
E|-6-6-6-6--6-6-6/9--9--9--9--9--0----7-7-7-7-7-7-4-|
B|-6-6-6-6--6-6-6/9--9--9--9--9--0------------------|
E|-6-6-6-6--6-6-6/9--9--9--9--9--0------------------|


E|---------------------------------------------------|
B|---------------------------------------------------|
G|---------------------------------------------------|
D|-9-9-9-9--9-9-9/11-11-11-11-11------9-9-9-9-9/11-9-|
A|-9-9-9-9--9-9-9/11-11-11-11-11------x-x-x-x-x-x--x-|
E|-6-6-6-6--6-6-6/9--9--9--9--9--0----7-7-7-7-7/9--7-|
B|-6-6-6-6--6-6-6/9--9--9--9--9--0-------------------|
E|-6-6-6-6--6-6-6/9--9--9--9--9--0-------------------|


E|--------------------------------------------------|
B|--------------------------------------------------|
G|--------------------------------------------------|
D|-9-9-9-9--9-9-9/11-11-11-11-11------9-9-9-9-9-9-6-|
A|-9-9-9-9--9-9-9/11-11-11-11-11------x-x-x-x-x-x-x-|
E|-6-6-6-6--6-6-6/9--9--9--9--9--0----7-7-7-7-7-7-4-|
B|-6-6-6-6--6-6-6/9--9--9--9--9--0------------------|
E|-6-6-6-6--6-6-6/9--9--9--9--9--0------------------|


E|--------------------------------------------------------------------------|
B|--------------------------------------------------------------------------|
G|--------------------------------------------------------------------------|
D|-5-5-5-5--5-5--5-5-5-------8-8-8-8--8-----8-----8--8-8-8-8--8-----8-----8-|
A|-5-5-5-5--5-5--5-5-5--7----8-8-8-8--8-----8-----8--8-8-8-8--8-----8-----8-| x2
E|-2-2-2-2--2-2--2-2-2--7----6-6-6-6--6-----6-----6--6-6-6-6--6-----6-----6-|
B|-2-2-2-2--2-2--2-2-2--5----6-6-6-6--6-6-6-6-6-6-6--6-6-6-6--6-6-6-6-6-6-6-|
E|-2-2-2-2--2-2--2-2-2--0----6-6-6-6--6-6-6-6-6-6-6--6-6-6-6--6-6-6-6-6-6-6-|
                                        . .   . .               . .   . .

E|-------------------------------|
B|-------------------------------|
G|-------------------------------|
D|-------------------------------|
A|-------------------------------| x4
E|-------------------------------|
B|-------------------------------|
E|-12p0-0-12p0-0-12p0-0-11-11-11-|


E|------------------------------|
B|------------------------------|
G|------------------------------|
D|------------------------------|
A|------------------------------|
E|------------------------------|
B|------------------------------|
E|-14p-0-14p0-0-14p0-0-14-14-14-|


E|----------------------------------------------------------------------------|
B|----------------------------------------------------------------------------|
G|----------------------------------------------------------------------------|
D|----------------------------------------------------------------------------|
A|--------------------------------------------------------------7-----7-----7-|
E|--------------------------------------------------------------7-----7-----7-|
B|--------------------------------------------------------------5-0-0-5-0-0-5-|
E|-12p0-0-12p0-0-12p0-0-11-11-11--12p0-0-12p0-0-12p0-0-11-11-11---0-0---0-0---|
                                                                  . .   . .
Tap to rate this tab
# A B C D E F G H I J K L M N O P Q R S T U V W X Y Z