Song name
# A B C D E F G H I J K L M N O P Q R S T U V W X Y Z

Deftones - Entombed tab

Hi everyone, here's my tab for the intro of Entombed, new Deftones song from their last 
album Koi No Yokan. I spent a couple hours trying to figure it out and this sounds quite 
good to me. First tab here on U-G, ratings and comments are much appreciated, enjoy!

Standard Tuning (EADGBE)

E|------------------------8-----10----------|
B|-----6-----8-----10-----------------------|
G|------------------------------------------| x7
D|-7h8---7h8---7h8----7h8---7h8-------------|
A|------------------------------------------|
E|------------------------------------------|

E|------------------------8-----6-----------|
B|-----6-----8-----10-----------------------|
G|------------------------------------------|
D|-7h8---7h8---7h8----7h8---7h8-------------|
A|------------------------------------------|
E|------------------------------------------|

Then, when Chino starts to sing, alternate the first row with the second one (as you can 
see, only the last note changes):

E|------------------------8-----10----------|
B|-----6-----8-----10-----------------------|
G|------------------------------------------|
D|-7h8---7h8---7h8----7h8---7h8-------------|
A|------------------------------------------|
E|------------------------------------------|

E|------------------------8-----6-----------|
B|-----6-----8-----10-----------------------|
G|------------------------------------------|
D|-7h8---7h8---7h8----7h8---7h8-------------|
A|------------------------------------------|
E|------------------------------------------|

This stuff: x3 (Verse)

Hope I'll get to figure out the rest of the song. Stay tuned!
Tap to rate this tab
 
# A B C D E F G H I J K L M N O P Q R S T U V W X Y Z