Song name
# A B C D E F G H I J K L M N O P Q R S T U V W X Y Z

Deftones - Entombed tab

-------------------------------------------------------------------------------
                             Entombed - Deftones
-------------------------------------------------------------------------------
E-mail:vectorf@hotmail.com

NOTE : This is a simplified version  on how to be played on a 6 string.
Not 100% correct but the only tab i found was a little inaccurate so i just put a litte 
effort to make it seem better.
- play with the song to get the repetitions and timing.

Lead
E|-----------------------------------------|
B|-----------------------------------------|
G|-2h3-t10p2h3-t12p2h3-t14p2h3-t17p2h3-t19p|
D|-----------------------------------------|
A|-----------------------------------------|
E|-----------------------------------------|

Rhythm(this section is basically played the whole song)
   ~~                         ~~~~
E|------------------------|-----|
B|-3----------------------|--10-|
G|-2----------------------|-----|
D|-0----------------------|-----|
A|-0----------------------|-----|
E|------------------------|-----|

Lead
E|------------------------------------------------------------------------------------|
B|------------------------------------------------------------------------------------|
G|-2h3-t10p2h3-t12p2h3-t14p2h3-t17p2h3-t19p--2h3-t10p2h3-t12p2h3-t14p2h3-t17p2h3-t15p-|
D|------------------------------------------------------------------------------------|
A|------------------------------------------------------------------------------------|
E|------------------------------------------------------------------------------------|

Lead
E|------------------------------------------------------------------------------------|
B|------------------------------------------------------------------------------------|
G|-2h3-t10p2h3-t12p2h3-t14p2h3-t15p2h3-t17p--2h3-t10p2h3-t12p2h3-t14p2h3-t17p2h3-t15p-|
D|------------------------------------------------------------------------------------|
A|------------------------------------------------------------------------------------|
E|------------------------------------------------------------------------------------|


CHORUS

E|------------------------|
B|------------------------|
G|--------------8--8--8-8-|
D|-3--3--3-5-5--8--8--8-8-|
A|---------5-5--6--6--6-6-|
E|-1--1--1-3-3--6--6--6-6-|


E|----------------|
B|----------------|
G|--------------8-|
D|-5--5--5-7-7--8-|
A|-5--5--5-8-8--6-|
E|-3--3--3-5-5--6-|


BREAK
Lead
E|------------------------------------------------------------------------------------|
B|------------------------------------------------------------------------------------|
G|-2h3-t10p2h3-t12p2h3-t14p2h3-t17p2h3-t19p--2h3-t10p2h3-t12p2h3-t14p2h3-t17p2h3-t15p-|
D|------------------------------------------------------------------------------------|
A|------------------------------------------------------------------------------------|
E|------------------------------------------------------------------------------------|


E|------------------------------------------------------------------------------------|
B|------------------------------------------------------------------------------------|
G|-2h3-t10p2h3-t12p2h3-t14p2h3-t15p2h3-t17p--2h3-t10p2h3-t12p2h3-t14p2h3-t17p2h3-t19p-|
D|------------------------------------------------------------------------------------|
A|------------------------------------------------------------------------------------|
E|------------------------------------------------------------------------------------|



OUTRO

Lead
E|------------------------------------------------------------------------------------|
B|------------------------------------------------------------------------------------|
G|-2h3-t10p2h3-t12p2h3-t14p2h3-t17p2h3-t19p--2h3-t10p2h3-t12p2h3-t14p2h3-t17p2h3-t15p-|
D|------------------------------------------------------------------------------------|
A|------------------------------------------------------------------------------------| x2
E|------------------------------------------------------------------------------------|



E|-------------------------------------------------|
B|-------------------------------------------------|
G|-2h3-t10p2h3--t12p2h3---t14p2h3---t17p2h3----t19-|
D|-------------------------------------------------|
A|-------------------------------------------------|
E|-------------------------------------------------|

Rhythm

E|-------------------------------------------------|
B|-------------------------------------------------|
G|-------------------------------------------------|
D|-888-7-8-8---------------------------------------|
A|-888-7-8-8---------------------------------------|
E|-666-5-6-6---------------------------------------|


************************************

| /   slide up
| \   slide down
| h   hammer-on
| p   pull-off
| ~   vibrato
| +   harmonic
| x   Mute note
| b   Bend
| pb  Pre-bend
| br  Bend release
| pbr Pre-bend release
| brb Bend release bend

************************************
Tap to rate this tab
# A B C D E F G H I J K L M N O P Q R S T U V W X Y Z