Song name
# A B C D E F G H I J K L M N O P Q R S T U V W X Y Z

Deftones - The Boys Republic tab

-------------------------------------------------------------------------------
	           The Boys Republic - Deftones
-------------------------------------------------------------------------------

Tabbed by: Matt Bostock
Email:slipknotbos@hotmail.com

Tuning:Drop D

I tabbed this one by watchin the acoustic version of this song on there
'DEFTONES IN HAWAII' video.... it also works on the proper rock version

INTRO/VERSE
e|---------------------------------------------------------------------------|
B|---------------------------------------------------------------------------|
G|---------------------------------------------------------------------------|
D|---------------------------------------------------------------------------|
A|-0--0-0-12--12-12-5-5-5-5/9-9-9--------------------------------------------|
D|-0--0-0-12--12-12-5-5-5-5/9-9-9--------------------------------------------|

CHORUS
e|---------------------------------------------------------------------------|
B|---------------------------------------------------------------------------|
G|---------------------------------------------------------------------------|
D|---------------------------------------------------------------------------|
A|-3-3-3-3-3-3-3-3-3-3-0-0---------------------------------------------------|
D|-3-3-3-3-3-3-3-3-3-3-0-0---------------------------------------------------|


Mosh bit thingy
e|---------------------------------------------------------------------------|
B|---------------------------------------------------------------------------|
G|---------------------------------------------------------------------------|
D|---------------------------------------------------------------------------|
A|-0-0-0-0-12--12-12-0-0-0-0-14--14-14-0-0-0-0-17--17-17-0-0-0-0-12--12-12---|
D|-0-0-0-0-12--12-12-0-0-0-0-14--14-14-0-0-0-0-17--17-17-0-0-0-0-12--12-12---|

DUH DUHHHHHHH!   Good ya?  hope so... c yaz!

Peace out yall
Tap to rate this tab
# A B C D E F G H I J K L M N O P Q R S T U V W X Y Z