Song name
# A B C D E F G H I J K L M N O P Q R S T U V W X Y Z

Deftones - Lotion tab

Lotion - Deftones

Exact way Stepehen plays it. I saw the Deftones in Berlin yesterday and i stood in the 
front row.

For those open ringing notes in the verse, please use a Chorus-Effect!





                               PM PM PM PM PM PM PM PM PM PM   PM PM PM   PM
      Q    Q    Q    Q         S  S  S  S  S  S  S  S  S  S  S S  S  S  S S
D#||--0----0----0----0----||-------------------------------------------------|
A#||--0----0----0----0----||-------------------------------------------------|
F#||--0----0----0----0----||*------------------------------------------------|
C#||--0----0----0----0----||*--0--1--1--1--0--1--1--1--0--1----1--0--1----1--|
G#||--4----4----4----4----||---0--1--1--1--0--1--1--1--0--1----1--0--1----1--|
C#||----------------------||---0--1--1--1--0--1--1--1--0--1----1--0--1----1--|


  Q    Q    Q    Q     3x  S S S S S S S S S S S S S S S S
--0----0----0----0-----||----------------------------------|
--0----0----0----0-----||----------------------------------|
--0----0----0----0----*||----------------------------------|
--0----0----0----0----*||--0-1-1-1-0-1-1-1-0-1-1-1-0-1-1-1-|
--4----4----4----4-----||--0-1-1-1-0-1-1-1-0-1-1-1-0-1-1-1-|
-----------------------||--0-1-1-1-0-1-1-1-0-1-1-1-0-1-1-1-|


    E.  S E.  S E.  S S E  S    E.  S E.  S E.  S S E  S
|----------------------------|----------------------------||
|----------------------------|----------------------------||
|*---------------------------|---------------------------*||
|*--4---4-4---4-4---4-4-0--0-|--5---5-5---5-5---5-5-0--0-*||
|---4---4-4---4-4---4-4-0--0-|--5---5-5---5-5---5-5-0--0--||
|---4---4-4---4-4---4-4-0--0-|--5---5-5---5-5---5-5-0--0--||


                           PM PM PM PM PM PM PM PM PM PM   PM PM PM   PM
  Q    Q    Q    Q         S  S  S  S  S  S  S  S  S  S  S S  S  S  S S
--0----0----0----0----||-------------------------------------------------|
--0----0----0----0----||-------------------------------------------------|
--0----0----0----0----||*------------------------------------------------|
--0----0----0----0----||*--0--1--1--1--0--1--1--1--0--1----1--0--1----1--|
--4----4----4----4----||---0--1--1--1--0--1--1--1--0--1----1--0--1----1--|
----------------------||---0--1--1--1--0--1--1--1--0--1----1--0--1----1--|


  Q    Q    Q    Q     3x  S S S S S S S S S S S S S S S S
--0----0----0----0-----||----------------------------------|
--0----0----0----0-----||----------------------------------|
--0----0----0----0----*||----------------------------------|
--0----0----0----0----*||--0-1-1-1-0-1-1-1-0-1-1-1-0-1-1-1-|
--4----4----4----4-----||--0-1-1-1-0-1-1-1-0-1-1-1-0-1-1-1-|
-----------------------||--0-1-1-1-0-1-1-1-0-1-1-1-0-1-1-1-|


    E.  S E.  S E.  S S E  S    E.  S E.  S E.  S S E  S  4x
|----------------------------|----------------------------||
|----------------------------|----------------------------||
|*---------------------------|---------------------------*||
|*--4---4-4---4-4---4-4-0--0-|--5---5-5---5-5---5-5-0--0-*||
|---4---4-4---4-4---4-4-0--0-|--5---5-5---5-5---5-5-0--0--||
|---4---4-4---4-4---4-4-0--0-|--5---5-5---5-5---5-5-0--0--||


   PM PM PM PM PM PM PM PM
   S  S  S  S  S  S  S  S  S S E  S S E   4x  Q    Q    Q    Q
------------------------------------------||--0----0----0----0----|
------------------------------------------||--0----0----0----0----|
*----------------------------------------*||--0----0----0----0----|
*--0--4--4--4--0--4--4--4--0-4-4--5-4-0--*||--0----0----0----0----|
---0--4--4--4--0--4--4--4--0-4-4--5-4-0---||--4----4----4----4----|
---0--4--4--4--0--4--4--4--0-4-4--5-4-0---||----------------------|


    PM PM PM PM PM PM PM PM PM PM   PM PM PM   PM
    S  S  S  S  S  S  S  S  S  S  S S  S  S  S S     Q    Q    Q    Q     3x
|-------------------------------------------------|--0----0----0----0-----||
|-------------------------------------------------|--0----0----0----0-----||
|*------------------------------------------------|--0----0----0----0----*||
|*--0--1--1--1--0--1--1--1--0--1----1--0--1----1--|--0----0----0----0----*||
|---0--1--1--1--0--1--1--1--0--1----1--0--1----1--|--4----4----4----4-----||
|---0--1--1--1--0--1--1--1--0--1----1--0--1----1--|-----------------------||


  S S S S S S S S S S S S S S S S      E.  S E.  S E.  S S E  S
----------------------------------||----------------------------|
----------------------------------||----------------------------|
----------------------------------||*---------------------------|
--0-1-1-1-0-1-1-1-0-1-1-1-0-1-1-1-||*--4---4-4---4-4---4-4-0--0-|
--0-1-1-1-0-1-1-1-0-1-1-1-0-1-1-1-||---4---4-4---4-4---4-4-0--0-|
--0-1-1-1-0-1-1-1-0-1-1-1-0-1-1-1-||---4---4-4---4-4---4-4-0--0-|


                                 PM PM PM PM PM PM PM PM
  E.  S E.  S E.  S S E  S  4x   S  S  S  S  S  S  S  S  S S E  S S E   4x
----------------------------||------------------------------------------||-----|
----------------------------||------------------------------------------||-----|
---------------------------*||*----------------------------------------*||-----|
--5---5-5---5-5---5-5-0--0-*||*--0--4--4--4--0--4--4--4--0-4-4--5-4-0--*||-----|
--5---5-5---5-5---5-5-0--0--||---0--4--4--4--0--4--4--4--0-4-4--5-4-0---||-----|
--5---5-5---5-5---5-5-0--0--||---0--4--4--4--0--4--4--4--0-4-4--5-4-0---||-----|


                        S S S S S S S S S S E  S S E   4x
-------------------||----------------------------------||
-------------------||----------------------------------||
-------------------||*--------------------------------*||
-------------------||*--0-4-4-4-0-4-4-4-0-4-4--5-4-0--*||
-------------------||---0-4-4-4-0-4-4-4-0-4-4--5-4-0---||
-------------------||---0-4-4-4-0-4-4-4-0-4-4--5-4-0---||


   S S S S S S S S S S E  S S E   4x  Q    Q    Q    Q
----------------------------------||--0----0----0----0----|
----------------------------------||--0----0----0----0----|
*--------------------------------*||--0----0----0----0----|
*--0-4-4-4-0-4-4-4-0-4-4--5-4-0--*||--0----0----0----0----|
---0-4-4-4-0-4-4-4-0-4-4--5-4-0---||--4----4----4----4----|
---0-4-4-4-0-4-4-4-0-4-4--5-4-0---||----------------------|


    PM PM PM PM PM PM PM PM PM PM   PM PM PM   PM
    S  S  S  S  S  S  S  S  S  S  S S  S  S  S S     Q    Q    Q    Q     3x
|-------------------------------------------------|--0----0----0----0-----||
|-------------------------------------------------|--0----0----0----0-----||
|*------------------------------------------------|--0----0----0----0----*||
|*--0--1--1--1--0--1--1--1--0--1----1--0--1----1--|--0----0----0----0----*||
|---0--1--1--1--0--1--1--1--0--1----1--0--1----1--|--4----4----4----4-----||
|---0--1--1--1--0--1--1--1--0--1----1--0--1----1--|-----------------------||


  S S S S S S S S S S S S S S S S      E.  S E.  S E.  S S E  S
----------------------------------||----------------------------|
----------------------------------||----------------------------|
----------------------------------||*---------------------------|
--0-1-1-1-0-1-1-1-0-1-1-1-0-1-1-1-||*--4---4-4---4-4---4-4-0--0-|
--0-1-1-1-0-1-1-1-0-1-1-1-0-1-1-1-||---4---4-4---4-4---4-4-0--0-|
--0-1-1-1-0-1-1-1-0-1-1-1-0-1-1-1-||---4---4-4---4-4---4-4-0--0-|


                                 PM PM PM PM PM PM PM PM
  E.  S E.  S E.  S S E  S  4x   S  S  S  S  S  S  S  S  S S E  S S E   4x
----------------------------||------------------------------------------||
----------------------------||------------------------------------------||
---------------------------*||*----------------------------------------*||
--5---5-5---5-5---5-5-0--0-*||*--0--4--4--4--0--4--4--4--0-4-4--5-4-0--*||
--5---5-5---5-5---5-5-0--0--||---0--4--4--4--0--4--4--4--0-4-4--5-4-0---||
--5---5-5---5-5---5-5-0--0--||---0--4--4--4--0--4--4--4--0-4-4--5-4-0---||


   S S S S S S S S S S E  S S E     S S S S S S S S S S E  S S E
---------------------------------|--------------------------------|
---------------------------------|--------------------------------|
*--------------------------------|--------------------------------|
*--0-4-4-4-0-4-4-4-0-4-4--5-4-0--|--0-4-4-4-0-4-4-4-0-4-4--5-4-0--|
---0-4-4-4-0-4-4-4-0-4-4--5-4-0--|--0-4-4-4-0-4-4-4-0-4-4--5-4-0--|
---0-4-4-4-0-4-4-4-0-4-4--5-4-0--|--0-4-4-4-0-4-4-4-0-4-4--5-4-0--|


  S S S S S S S S S S E  S S E     S S S S S S S S S S E  S S E   4x
--------------------------------|---------------------------------||
--------------------------------|---------------------------------||
--------------------------------|--------------------------------*||
--0-4-4-4-0-4-4-4-0-4-4--5-4-0--|--0-4-4-4-0-4-4-4-0-4-4--5-4-0--*||
--0-4-4-4-0-4-4-4-0-4-4--5-4-0--|--0-4-4-4-0-4-4-4-0-4-4--5-4-0---||
--0-4-4-4-0-4-4-4-0-4-4--5-4-0--|--0-4-4-4-0-4-4-4-0-4-4--5-4-0---||




Duration Legend
---------------
W - whole
H - half
Q - quarter
E - 8th
S - 16th
T - 32nd
X - 64th
. - note dotted
|-n-|  - n-tuplets


Tablature Legend
----------------
L - tied note
x - dead note
g - grace note
(n) - ghost note
> - accentuded note
NH - natural harmonic
AH - artificial harmonic
TH - tapped harmonic
SH - semi harmonic
PH - pitch harmonic
h - hammer on
p - pull off
b - bend
br - bendRelease
pb - preBend
pbr - preBendRelease
brb - bendReleaseBend
\n/ - tremolo bar dip
\n - tremolo bar dive
-/n - tremolo bar Release up
/n\ - tremolo bar inverted dip
/n - tremolo bar return
-\n - tremolo bar Release down
S - shift slide
s - legato slide
/ -  slide into from below or out of upwards
\ -  slide into from above or out of downwards
~ - vibrato
W - wide vibrato
tr - trill
TP - tremolo picking
T - tapping
S - slap
P - pop
< - fade in
^ - brush up
v - brush down
Tap to rate this tab
# A B C D E F G H I J K L M N O P Q R S T U V W X Y Z