Song name
# A B C D E F G H I J K L M N O P Q R S T U V W X Y Z

Deftones - Diamond Eyes tab

   Diamond Eyes - Deftones                                  


Stephen, 8string guitar
This is the EXACT way Stephen plays this song. I saw the Deftones yesterday in 
Berlin and he played it like that.




            PM PM                PM PM                PM PM        
     Q     E  E  E  E     Q     E  E  E  E     Q     E  E  E  E  
E ||--------------------|--------------------|--------------------|
B ||--------------------|--------------------|--------------------|
F#||--------------------|--------------------|--------------------|
D ||--------------------|--------------------|--------------------|
A ||--------------------|--------------------|--------------------|
E ||--------------------|--------------------|--------------------|
B ||--------6--6--------|--------6--6--------|--------6--6--------|
F#||--4b----4--4--------|--4b----4--4--------|--4b----4--4--------|


  Q     Q     Q      4x  Q.     Q    E     Q.     Q    E     Q.     Q    E   
---------------------||-----------------|-----------------|-----------------|
---------------------||-----------------|-----------------|-----------------|
---------------------||-----------------|-----------------|-----------------|
---------------------||-----------------|-----------------|-----------------|
---------------------||-----------------|-----------------|-----------------|
---------------------||--8------8----8--|--8------8----8--|--6------6----6--|
---------------------||--8------8----8--|--8------8----8--|--6------6----6--|
--4b----4b----4b-----||--6------6----6--|--6------6----6--|--4------4----4--|


  E   E  E   E   3x  Q.     Q    E     Q.     Q    E     Q.     Q    E   
-----------------|------------------|-----------------|-----------------|
-----------------||-----------------|-----------------|-----------------|
-----------------||-----------------|-----------------|-----------------|
-----------------||-----------------|-----------------|-----------------|
-----------------||-----------------|-----------------|-----------------|
--6s--5--5s--4---||--8------8----8--|--8------8----8--|--6------6----6--|
--6s--5--5s--4---||--8------8----8--|--8------8----8--|--6------6----6--|
--4s--3--3s--2---||--6------6----6--|--6------6----6--|--4------4----4--|


         PM PM                PM PM                PM PM        
   Q     E  E  E  E     Q     E  E  E  E     Q     E  E  E  E   
|--------------------|--------------------|--------------------|
|--------------------|--------------------|--------------------|
|--------------------|--------------------|--------------------|
|--------------------|--------------------|--------------------|
|--------------------|--------------------|--------------------|
|--------------------|--------------------|--------------------|
|--------6--6--------|--------6--6--------|--------6--6--------|
|--4b----4--4--------|--4b----4--4--------|--4b----4--4--------|


  Q     Q     Q      4x  Q.     Q    E     Q.     Q    E     Q.     Q    E   
---------------------||-----------------|-----------------|-----------------|
---------------------||-----------------|-----------------|-----------------|
---------------------||-----------------|-----------------|-----------------|
---------------------||-----------------|-----------------|-----------------|
---------------------||-----------------|-----------------|-----------------|
---------------------||--8------8----8--|--8------8----8--|--6------6----6--|
---------------------||--8------8----8--|--8------8----8--|--6------6----6--|
--4b----4b----4b-----||--6------6----6--|--6------6----6--|--4------4----4--|


  E   E  E   E   7x  Q.     Q    E     Q.     Q    E     Q.     Q    E   
-----------------||-----------------|-----------------|-----------------|
-----------------||-----------------|-----------------|-----------------|
-----------------||-----------------|-----------------|-----------------|
-----------------||-----------------|-----------------|-----------------|
-----------------||-----------------|-----------------|-----------------|
--6s--5--5s--4---||--8------8----8--|--8------8----8--|--6------6----6--|
--6s--5--5s--4---||--8------8----8--|--8------8----8--|--6------6----6--|
--4s--3--3s--2---||--6------6----6--|--6------6----6--|--4------4----4--|


   E   E  E   E  E  E     E   E  E   E  E  E     E   E  E   E  E  E   
|----------------------|----------------------|----------------------|
|----------------------|----------------------|----------------------|
|----------------------|----------------------|----------------------|
|----------------------|----------------------|----------------------|
|----------------------|----------------------|----------------------|
|----------------------|----------------------|----------------------|
|--4---3--3---2--------|--4---3--3---2--------|--4---3--3---2--------|
|--2s--1--1s--0--------|--2s--1--1s--0--------|--2s--1--1s--0--------|


                                  PM PM                PM PM        
  E   E  E   E   E  E       Q     E  E  E  E     Q     E  E  E  E   
------------------------||--------------------|--------------------|
------------------------||--------------------|--------------------|
------------------------||--------------------|--------------------|
------------------------||--------------------|--------------------|
------------------------||--------------------|--------------------|
------------------------||--------------------|--------------------|
--4---3--3---2--10--9---||--------6--6--------|--------6--6--------|
--2s--1--1s--0----------||--4b----4--4--------|--4b----4--4--------|


        PM PM                PM PM                               
  Q     E  E  E  E     Q     E  E  E  E       Q     Q     Q      
--------------------|---------------------||--------------------|
--------------------|---------------------||--------------------|
--------------------|---------------------||--------------------|
--------------------|---------------------||--------------------|
--------------------|---------------------||--------------------|
--------------------|---------------------||--------------------|
--------6--6--------|--------6--6---------||--------------------|
--4b----4--4--------|--4b----4--4---------||--4b----4b----4b----|


         PM PM                PM PM                PM PM        
   Q     E  E  E  E     Q     E  E  E  E     Q     E  E  E  E   
|--------------------|--------------------|--------------------|
|--------------------|--------------------|--------------------|
|--------------------|--------------------|--------------------|
|--------------------|--------------------|--------------------|
|--------------------|--------------------|--------------------|
|--------------------|--------------------|--------------------|
|--------6--6--------|--------6--6--------|--------6--6--------|
|--4b----4--4--------|--4b----4--4--------|--4b----4--4--------|


        PM PM                                                  
  Q     E  E  E  E       Q     Q     Q         Q.     Q    E   
---------------------||--------------------||-----------------|
---------------------||--------------------||-----------------|
---------------------||--------------------||-----------------|
---------------------||--------------------||-----------------|
---------------------||--------------------||-----------------|
---------------------||--------------------||--8------8----8--|
--------6--6---------||--------------------||--8------8----8--|
--4b----4--4---------||--4b----4b----4b----||--6------6----6--|


  Q.     Q    E     Q.     Q    E     E   E  E   E   7x  Q.     Q    E   
-----------------|-----------------|-----------------||-----------------|
-----------------|-----------------|-----------------||-----------------|
-----------------|-----------------|-----------------||-----------------|
-----------------|-----------------|-----------------||-----------------|
-----------------|-----------------|-----------------||-----------------|
--8------8----8--|--6------6----6--|--6s--5--5s--4---||--8------8----8--|
--8------8----8--|--6------6----6--|--6s--5--5s--4---||--8------8----8--|
--6------6----6--|--4------4----4--|--4s--3--3s--2---||--6------6----6--|


  Q.     Q    E     Q.     Q    E     E   E  E   E  E  E                     
-----------------|-----------------|----------------------|-----|-----|-----|
-----------------|-----------------|----------------------|-----|-----|-----|
-----------------|-----------------|----------------------|-----|-----|-----|
-----------------|-----------------|----------------------|-----|-----|-----|
-----------------|-----------------|----------------------|-----|-----|-----|
--8------8----8--|--6------6----6--|----------------------|-----|-----|-----|
--8------8----8--|--6------6----6--|--4---3--3---2--------|-----|-----|-----|
--6------6----6--|--4------4----4--|--2s--1--1s--0--------|-----|-----|-----|


   E   E  E   E  E  E     E   E  E   E  E  E     E   E  E   E  E  E   
|----------------------|----------------------|----------------------|
|----------------------|----------------------|----------------------|
|----------------------|----------------------|----------------------|
|----------------------|----------------------|----------------------|
|----------------------|----------------------|----------------------|
|----------------------|----------------------|----------------------|
|--4---3--3---2--------|--4---3--3---2--------|--4---3--3---2--------|
|--2s--1--1s--0--------|--2s--1--1s--0--------|--2s--1--1s--0--------|


  E   E  E   E   E   E   4x
-------------------------||
-------------------------||
-------------------------||
-------------------------||
-------------------------||
-------------------------||
--4---3--3---2--10p--9---||
--2s--1--1s--0-----------||




Duration Legend
---------------
W - whole
H - half
Q - quarter
E - 8th
S - 16th
T - 32nd
X - 64th
. - note dotted
|-n-|  - n-tuplets


Tablature Legend
----------------
L - tied note
x - dead note
g - grace note
(n) - ghost note
> - accentuded note
NH - natural harmonic
AH - artificial harmonic
TH - tapped harmonic
SH - semi harmonic
PH - pitch harmonic
h - hammer on
p - pull off
b - bend
br - bendRelease
pb - preBend
pbr - preBendRelease
brb - bendReleaseBend
\n/ - tremolo bar dip
\n - tremolo bar dive
-/n - tremolo bar Release up
/n\ - tremolo bar inverted dip
/n - tremolo bar return
-\n - tremolo bar Release down
S - shift slide
s - legato slide
/ -  slide into from below or out of upwards
\ -  slide into from above or out of downwards
~ - vibrato
W - wide vibrato
tr - trill
TP - tremolo picking
T - tapping
S - slap
P - pop
< - fade in
^ - brush up
v - brush down
Tap to rate this tab
 
# A B C D E F G H I J K L M N O P Q R S T U V W X Y Z