Song name
# A B C D E F G H I J K L M N O P Q R S T U V W X Y Z

Deftones - Entombed tab

Artist  :       Deftones
Song    :       Entombed
Album   :       Koi no Yokan


Tabbed by Dave Curtis
Any questions/corrections to Sonicboombox@Yahoo.com



NOTE: This is not a full tab and its not the way they play it but its the best you can 
do on a 6 string

Key
h : hammer on
/ : slide




Nice bit of delay through this

Intro/Verse
E-----------------------------8-------10--|
B--------------8------10------------------|
G-----10----------------------------------|
D-7h8-----7h8-----7h8-----7h8----7h8------|
A-----------------------------------------|
D-----------------------------------------|

There is variations on this throughout the song listen out for them



Chorus
E------------------------------------|
B------------------------------------|
G-10-10-10/12-12-12-12--3-3-3-3-3-3--|
D-10-10-10/12-12-12-12--3-3-3-3-3-3--|
A-8--8--8-/10-10-10-10--1-1-1-1-1-1--|
D------------------------------------| x2


E-----------------------------------------|
B-------------------------19-19-17--------|
G-7-7-7-5-5-5-10-10-10-10-10-10-10-10-10--|
D-7-7-7-3-3-3-10-10-10-10-10-10-10-10-10--|
A-5-5-5-3-3-3-8--8--8--8--8--8--8--8--8---|
D-------3-3-3-8--8--8--8--8--8--8--8--8---| x2



Will try and update this later but these are the two main parts of the song with some 
variations and a 2nd guitar
Tap to rate this tab
# A B C D E F G H I J K L M N O P Q R S T U V W X Y Z