Guitaretab - guitar tabs
Song name
# A B C D E F G H I J K L M N O P Q R S T U V W X Y Z

Deftones - Change In The House Of Flies Acoustic tab

----------------------------------------------------------------------------
	    Change (in the House of Flies) (Acoustic) - Deftones
----------------------------------------------------------------------------
Tabbed by: Skipper Mikkel
Email: Mikkel_sejl@hotmail.com

Tuning: Drop C (low to high - CADGBE)


Intro:

Riff A:  x 4
-x-x-x-x-x-x-x-x-x-x-|
-x-x-x-x-x-x-x-x-x-x-|
-8-8-8-8-8-x-x-x-x-x-|
-x-x-x-x-x-3-6-5-6-5-|
-6-6-6-6-6-3-3-3-3-3-|
-0-0-0-0-0-5-5-5-5-5-|


Verse 1:

Riff A  x 4

I've watched you change 
Into a fly
I looked away
You were on fire


Chorus:

Riff B:  x 4
-x-x-x-x-x-x-x-x-|
-x-x-x-x-x-x-x-x-|
-5-5-5-5-8-8-8-8-|
-5-5-5-5-6-6-6-6-|
-3-3-3-3-6-6-6-6-|
-0-0-0-0-8-8-8-8-|

I watched a change
In you
It's like you never
Had wings
Now you feel
So alive
I've watched you change


Verse 2:

Riff A  x 4

I took you home
Set you on the glass
I pulled off your wings
Then I laughed


Chorus:

Riff B*:  x 4
-x-x-x-x-x-x-x-x-x-x-|
-x-4-x-4-x-x-x-x-x-x-|
-5-5-5-5-5-8-8-8-8-8-|
-5-5-5-5-5-6-8-6-8-6-|
-3-3-3-3-3-6-6-6-6-6-|
-0-0-0-0-0-8-8-8-8-8-|

I watched a change
In you
It's like you never
Had wings
Now you feel
So alive
I've watched you change

[ Tab from: http://www.guitaretab.com/d/deftones/37729.html ]
Post Chorus 1:

Riff C:  x 3
-x-x-x-x-x-x-x-x-|
-x-x-x-x-x-x-x-x-|
-3-3-3-3-5-5-5-5-|
-1-1-1-1-5-5-5-5-|
-1-1-1-1-3-3-3-3-|
-3-3-3-3-0-0-0-0-|

It's like you never
Had wings ahhh 
Ahhh ahh ahhh
Ahhh ahh ahhh
Ahhh ahh ahhh
Ahhh ahh ahhh
Ahhh 


Verse 3:

Riff A*:  x 4
-x-----x-----|
-x-----x-----|
-8-----x-----|
-x-----3-----|
-6-----3-----|
-0-----5-----|

I look at the cross
Then I look away
Give you the gun
Blow me away


Chorus:

Riff A  x 4

I watched a change
In you
It's like you never
Had wings
Now you feel
So alive
I've watched you change


Post Chorus 2:

Riff B*  x 4

You feel alive
You feel alive
You feel so alive
I've watched you change


Post Chorus 1:

Riff C*:  x 3
-x-x-x-x-x-x-10-10-|
-x-x-x-x-x-x-x--x--|
-3-3-3-3-5-5-x--x--|
-1-1-1-1-5-5-10-10-|
-1-1-1-1-3-3-10-10-|
-3-3-3-3-0-0-0--0--|

It's like you never
Had wings ahhh 
Ahhh ahh ahhh
Ahhh ahh ahhh
Ahhh ahh ahhh
Ahhh ahh ahhh
Ahhh 


Post Chorus 3:

Riff A**:  x 4
-x-x-x-x-x-x-x-x-x-x-x-x-|
-x-x-x-x-x-x-x-x-x-x-x-x-|
-x-x-x-x-x-x-x-x-x-x-x-x-|
-x-x-x-x-x-x-x-6-5-x-6-5-|
-6-x-6-x-6-3-x-3-3-x-3-3-|
-0-x-0-x-0-5-x-5-5-x-5-5-|

You changed ahh
You changed ahh
You changed ahh
You changed ahh
Go home



Related for Change In The House Of Flies Acoustic tab