Song name
# A B C D E F G H I J K L M N O P Q R S T U V W X Y Z

Deftones - Engine No 9 tab

Song: Engine No. 9
Album: Adrenaline
Artist: Deftones

|-----------------------------0-------------------------------|
|-----------------------------0-------------------------------|
|-----------------------------0-------------------------------|
|-----------------------------0-------------------------------|
|-------------------------------------------------------------|
|-2-3-2-0-2-3-2-0-2-3-2-0-2-3---2-3-2-0-2-3-2-0-2-3-2-0-2-3-5-|

|-----------------------------0-------------------------------|
|-----------------------------0-------------------------------|
|-----------------------------0-------------------------------| x2
|-4-5-4---4-5-4---4-5-4---4-5---4-5-4---4-5-4---4-5-4---4-5-7-|
|-4-5-4-0-4-5-4-0-4-5-4-0-4-5---4-5-4-0-4-5-4-0-4-5-4-0-4-5-7-|
|-2-3-2-0-2-3-2-0-2-3-2-0-2-3---2-3-2-0-2-3-2-0-2-3-2-0-2-3-5-|
                                                                          
|-------0~~--------0~~--------0~~--------0~~-------------------------|
|-------0~~--------0~~--------0~~--------0~~-------------------------|
|-------0~~--------0~~--------0~~--------0~~-------------------------| x2
|-4--4--0~~--4--4--0~~--4--4--0~~--4--4--0~~--8----8-8--7---7--5/7\5-| 
|-4--4-------4--4-------4--4-------4--4-------8----8-8--7---7--5/7\5-|
|-2--2-------2--2-------2--2-------2--2-------6----6-6--5---5--3/5\3-|

|-----------------------------0~~--------------------------------|
|-----------------------------0~~--------------------------------|
|-----------------------------0~~--------------------------------| x4
|-4-5-4---4-5-4---4-5-4---4-5-0~~--4-5-4---4-5-4---4-5-4---4-5-7-|
|-4-5-4-0-4-5-4-0-4-5-4-0-4-5------4-5-4-0-4-5-4-0-4-5-4-0-4-5-7-|
|-2-3-2-0-2-3-2-0-2-3-2-0-2-3------2-3-2-0-2-3-2-0-2-3-2-0-2-3-5-|
  ...........................      ...........................
                                  \_____________________________/
                                     Don't palm-mute 4th time

|-----------------------------0~~---------------------------------|
|-----------------------------0~~---------------------------------|
|-----------------------------0~~---------------------------------| x2
|-4-5-4---4-5-4---4-5-4---4-5------4-5-4---4-5-4---4-5-4---4-5-7~-|
|-4-5-4-0-4-5-4-0-4-5-4-0-4-5------4-5-4-0-4-5-4-0-4-5-4-0-4-5-7~-|
|-2-3-2-0-2-3-2-0-2-3-2-0-2-3------2-3-2-0-2-3-2-0-2-3-2-0-2-3-5~-|

|-------0~~--------0~~--------0~~--------0~~-------------------------|
|-------0~~--------0~~--------0~~--------0~~-------------------------|
|-------0~~--------0~~--------0~~--------0~~-------------------------|
|-4--4--0~~--4--4--0~~--4--4--0~~--4--4--0~~--8----8-8--7---7--5/7\5-| x2
|-4--4-------4--4-------4--4-------4--4-------8----8-8--7---7--5/7\5-|
|-2--2-------2--2-------2--2-------2--2-------6----6-6--5---5--3/5\3-|

|-----------------------------0~~------------------------------0~~--------------------------------|
|-----------------------------0~~------------------------------0~~--------------------------------|
|-----------------------------0~~------------------------------0~~--------------------------------|
|-----------------------------0~~--4-5-4---4-5-4---4-5-4---4-5-0~~--4-5-4---4-5-4---4-5-4---4-5-7-|
|----------------------------------4-5-4-0-4-5-4-0-4-5-4-0-4-5------4-5-4-0-4-5-4-0-4-5-4-0-4-5-7-|
|-2-3-2-0-2-3-2-0-2-3-2-0-2-3------2-3-2-0-2-3-2-0-2-3-2-0-2-3------2-3-2-0-2-3-2-0-2-3-2-0-2-3-5-|
                                   ...........................      ...........................

|-----------------------------0~~--------------------------------|
|-----------------------------0~~--------------------------------|
|-----------------------------0~~--------------------------------|
|-4-5-4---4-5-4---4-5-4---4-5-0~~--------------------------------|
|-4-5-4-0-4-5-4-0-4-5-4-0-4-5------------------------------------|
|-2-3-2-0-2-3-2-0-2-3-2-0-2-3------2-3-2-0-2-3-2-0-2-3-2-0-2-3-5-|
  ...........................

|-----------------------------0~~---------------------------------|
|-----------------------------0~~---------------------------------|
|-----------------------------0~~---------------------------------| x2
|-4-5-4---4-5-4---4-5-4---4-5------4-5-4---4-5-4---4-5-4---4-5-7~-|
|-4-5-4-0-4-5-4-0-4-5-4-0-4-5------4-5-4-0-4-5-4-0-4-5-4-0-4-5-7~-|
|-2-3-2-0-2-3-2-0-2-3-2-0-2-3------2-3-2-0-2-3-2-0-2-3-2-0-2-3-5~-|

|-------0~~--------0~~--------0~~--------0~~-------------------------|
|-------0~~--------0~~--------0~~--------0~~-------------------------|
|-------0~~--------0~~--------0~~--------0~~-------------------------|
|-4--4--0~~--4--4--0~~--4--4--0~~--4--4--0~~--8----8-8--7---7--5/7\5-| x3
|-4--4-------4--4-------4--4-------4--4-------8----8-8--7---7--5/7\5-|
|-2--2-------2--2-------2--2-------2--2-------6----6-6--5---5--3/5\3-|

|----|
|----|
|----|
|-4~~|
|-4~~|
|-2~~|


BASS INTERLUDE


|-------------------------------------------------------------------------------------|
|-------------------------------------------------------------------------------------|
|-------------------------------------------------------------------------------------|
|-4--0-4--0-4--0-4----7-8-2~----4/5----4----4------------2~---3-3-3-3-3-3-3-3-3-3-3-3-|
|-4--0-4--0-4--0-4----7-8-2~----4/5----4----4--------0h1-2~---3-3-3-3-3-3-3-3-3-3-3-3-|
|-2--0-2--0-2--0-2----5-6-0~----2/3-00-2--0-2--0-2-3-----0~---1-1-1-1-1-1-1-1-1-1-1-1-|
                                    ..    .                   . . . . . . . . . . . .
  \________________________/    \_________________________/
              4x                            8x

|-------0~~--------0~~--------0~~--------0~~-------------------------|
|-------0~~--------0~~--------0~~--------0~~-------------------------|
|-------0~~--------0~~--------0~~--------0~~-------------------------|
|-4--4--0~~--4--4--0~~--4--4--0~~--4--4--0~~--8----8-8--7---7--5/7\5-| x4
|-4--4-------4--4-------4--4-------4--4-------8----8-8--7---7--5/7\5-|
|-2--2-------2--2-------2--2-------2--2-------6----6-6--5---5--3/5\3-|
Tap to rate this tab
 
# A B C D E F G H I J K L M N O P Q R S T U V W X Y Z