Song name
# A B C D E F G H I J K L M N O P Q R S T U V W X Y Z

Deftones - Shove It tab

*Guitar Tab*
============================================================================
This is not finished yet, but I will finish it!!
Any problems or errors email me!! t3h_m4x0r@hotmail.com
============================================================================

Standard tuning

E,A,D,G,B,e


Intro x4 + Verse x4

e|------------------------------------------|
B|------------------------------------------|
G|----5--6-----5--------------7--6-----7--4-|
D|----------------7--4--7-------------------|
A|-4--------4--------------4--------4-------|
E|------------------------------------------|

after the verse theres the same bit but played lower - Play 4 times

e|------------------------------------------|
B|------------------------------------------|
G|------------------------------------------|
D|----5--6-----5--------------7--6-----7--4-|
A|----------------7--4--7-------------------|
E|-4--------4--------------4--------4-------|
Tap to rate this tab
# A B C D E F G H I J K L M N O P Q R S T U V W X Y Z