Song name
# A B C D E F G H I J K L M N O P Q R S T U V W X Y Z

Deftones - Bored tab

Help us improve GuitareTab! Take a short survey!
Song: Bored
Band: Deftones
CD: Adrenaline
Tuning: DADGBE
Tabbed By: BallTounge@MySpace For Any Questions or Comments

E|-----------|
B|-----------|
G|-----------|
D|-----------|
A|1-1-1-1-0-1|
D|1-1-1-1-0-1|x24
  . . . . . .

E|-----------------------------------------------|
B|-----------------------------------------------|
G|------------8-8-8-8-8-8-7-7-7-7-7-7-7-7-7-7-7-7|
D|5-5-5-5-5-5-8-8-8-8-8-8-7-7-7-7-7-7-7-7-7-7-7-7|
A|5-5-5-5-5-5-6-6-6-6-6-6-5-5-5-5-5-5-5-5-5-5-5-5|
D|5-5-5-5-5-5------------------------------------|x2

E|-----------|
B|-----------|
G|-----------|
D|-----------|
A|1-1-1-1-0-1|
D|1-1-1-1-0-1|x16
  . . . . . .

E|-----------------------------------------------|
B|-----------------------------------------------|
G|------------8-8-8-8-8-8-7-7-7-7-7-7-7-7-7-7-7-7|
D|5-5-5-5-5-5-8-8-8-8-8-8-7-7-7-7-7-7-7-7-7-7-7-7|
A|5-5-5-5-5-5-6-6-6-6-6-6-5-5-5-5-5-5-5-5-5-5-5-5|
D|5-5-5-5-5-5------------------------------------|x4

E|-------------|
B|-------------|
G|-------------|
D|-------------|
A|6-6-6-6-5-6-5|
D|6-6-6-6-5-6-5|x4
  . . . . . .

E|-----------|
B|-----------|
G|-----------|
D|-----------|
A|1-1-1-1-0-1|
D|1-1-1-1-0-1|x16
  . . . . . .

E|-----------------------------------------------|
B|-----------------------------------------------|
G|------------8-8-8-8-8-8-7-7-7-7-7-7-7-7-7-7-7-7|
D|5-5-5-5-5-5-8-8-8-8-8-8-7-7-7-7-7-7-7-7-7-7-7-7|
A|5-5-5-5-5-5-6-6-6-6-6-6-5-5-5-5-5-5-5-5-5-5-5-5|
D|5-5-5-5-5-5------------------------------------|x4

E|---------------------|
B|---------------------|
G|---------------------|
D|5-5-5-5--5-5-5-5--5-5|
A|5-5-5-5--5-5-5-5--5-5|
D|5-5-5-5--5-5-5-5--5-5|x3

E|-----------------------------|
B|-----------------------------|
G|----------------8-8-8-8-8-8-7|
D|5-5-5-5--5-5-5--8-8-8-8-8-8-7|
A|5-5-5-5--5-5-5--6-6-6-6-6-6-5|
D|5-5-5-5--5-5-5---------------|

E|-----------------------------------------------|
B|-----------------------------------------------|
G|------------8-8-8-8-8-8-7-7-7-7-7-7-7-7-7-7-7-7|
D|5-5-5-5-5-5-8-8-8-8-8-8-7-7-7-7-7-7-7-7-7-7-7-7|
A|5-5-5-5-5-5-6-6-6-6-6-6-5-5-5-5-5-5-5-5-5-5-5-5|
D|5-5-5-5-5-5------------------------------------|x4

E|-----------------------------------------------------------|
B|-----------------------------------------------------------|
G|----------------8-8-8-8-8-8-8-8-7-7-7-7-7-7-7-7-7-7-7-7-7-7|
D|5-5-5-5-5-5-5-5-8-8-8-8-8-8-8-8-7-7-7-7-7-7-7-7-7-7-7-7-7-7|
A|5-5-5-5-5-5-5-5-6-6-6-6-6-6-6-6-5-5-5-5-5-5-5-5-5-5-5-5-5-5|
D|5-5-5-5-5-5-5-5--------------------------------------------|x4

E|-------------|
B|-------------|
G|-------------|
D|-------------|
A|6-6-6-6-5-6-5|
D|6-6-6-6-5-6-5|x3
  . . . . . .

E|-----------|
B|-----------|
G|-----------|
D|-----------|
A|6-6-6-6-5-6|
D|6-6-6-6-5-6|
  . . . . . .
Related for Bored tab