Song name
# A B C D E F G H I J K L M N O P Q R S T U V W X Y Z

Deftones - Engine No 9 tab

Deftones
Engine Number 9


Tuning: Down a 1/2 step
        Drop D flat

this is not my tab..........





Intro
|-----------------------------|-----------------------------|
|----------------------------0|-----------------------------|
|----------------------------0|-----------------------------|
|----------------------------0|----------------------------8|
|-----------------------------|----------------------------8|
|5-6-5-0-5-6-5-0-5-6-5-0-5-6--|5-6-5-0-5-6-5-0-5-6-5-0-5-6-8|



Riff A
|-----------------------------|-----------------------------|
|----------------------------0|-----------------------------|
|----------------------------0|-----------------------------|
|5-6-5-0-5-6-5-0-5-6-5-0-5-6-0|5-6-5-0-5-6-5-0-5-6-5-0-5-6-8|
|5-6-5-0-5-6-5-0-5-6-5-0-5-6--|5-6-5-0-5-6-5-0-5-6-5-0-5-6-8|
|5-6-5-0-5-6-5-0-5-6-5-0-5-6--|5-6-5-0-5-6-5-0-5-6-5-0-5-6-8|



Chorus Riff
|---------------------------------------------------------|
|----0--0-----0--0-----0--0-----0--0----------------------|
|----0--0-----0--0-----0--0-----0--0------------------h---|
|5-5-0--0-5-5-0--0-5-5-0--0-5-5-0--0-9--9-9-9-8--8-8-6-8-6|
|5-5------5-5------5-5------5-5------9--9-9-9-8--8-8-6-8-6|
|5-5------5-5------5-5------5-5------9--9-9-9-8--8-8-6-8-6|


Riff B
          P.M.                            P.M.
 - - - - - - - - - - - - - -  - - - - - - - - - - - - - -
|----------------------------|-----------------------------|
|---------------------------0|-----------------------------|
|---------------------------0|-----------------------------|
|---------------------------0|----------------------------8|
|----------------------------|----------------------------8|
|5-6-5-0-5-6-5-0-5-6-5-0-5-6-|5-6-5-0-5-6-5-0-5-6-5-0-5-6-8|


Riff C
           P.M.
 - - - - - - - - - - - - - -
|----------------------------|-----------------------------|
|---------------------------0|-----------------------------|
|---------------------------0|-----------------------------|
|---------------------------0|----------------------------8|
|----------------------------|----------------------------8|
|5-6-5-0-5-6-5-0-5-6-5-0-5-6-|5-6-5-0-5-6-5-0-5-6-5-0-5-6-8|


Bass Riff
|-------------------------|
|-------------------------|
|-------------------------|
|5--0-5--0-5--0-5--0-8/9-0|


Riff D
|-------------------------|
|-------------------------|
|-------------------------|
|5--0-5--0-5--0-5--0-8/9-0|
|5--0-5--0-5--0-5--0-8/9-0|
|5--0-5--0-5--0-5--0-8/9-0|

Riff E                         Riff F
          P.M.                          P.M.
     - -    -    -             - - - - - - - - - - - -
|---------------------------| |-----------------------|
|---------------------------| |-----------------------|
|---------------------------| |-----------------------|
|5/6-0-0-5--0-5--0-5/6-8/9-0| |4-4-4-4-4-4-4-4-4-4-4-4|
|5/6-0-0-5--0-5--0-5/6-8/9-0| |4-4-4-4-4-4-4-4-4-4-4-4|
|5/6-0-0-5--0-5--0-5/6-8/9-0| |4-4-4-4-4-4-4-4-4-4-4-4|

keep it metal



Tap to rate this tab
# A B C D E F G H I J K L M N O P Q R S T U V W X Y Z